  0
SECTION
  2
HEADER
  9
$ACADVER
  1
AC1027
  9
$ACADMAINTVER
 70
   105
  9
$DWGCODEPAGE
  3
ANSI_1252
  9
$LASTSAVEDBY
  1
ContainerUser
  9
$REQUIREDVERSIONS
160
                 0
  9
$INSBASE
 10
0.0
 20
0.0
 30
0.0
  9
$EXTMIN
 10
1.000000000000000E+20
 20
1.000000000000000E+20
 30
1.000000000000000E+20
  9
$EXTMAX
 10
-1.000000000000000E+20
 20
-1.000000000000000E+20
 30
-1.000000000000000E+20
  9
$LIMMIN
 10
0.0
 20
0.0
  9
$LIMMAX
 10
12.0
 20
9.0
  9
$ORTHOMODE
 70
     0
  9
$REGENMODE
 70
     1
  9
$FILLMODE
 70
     1
  9
$QTEXTMODE
 70
     0
  9
$MIRRTEXT
 70
     1
  9
$LTSCALE
 40
1.0
  9
$ATTMODE
 70
     1
  9
$TEXTSIZE
 40
0.2
  9
$TRACEWID
 40
0.05
  9
$TEXTSTYLE
  7
Standard
  9
$CLAYER
  8
0
  9
$CELTYPE
  6
ByLayer
  9
$CECOLOR
 62
   256
  9
$CELTSCALE
 40
1.0
  9
$DISPSILH
 70
     0
  9
$DIMSCALE
 40
1.0
  9
$DIMASZ
 40
0.18
  9
$DIMEXO
 40
0.0625
  9
$DIMDLI
 40
0.38
  9
$DIMRND
 40
0.0
  9
$DIMDLE
 40
0.0
  9
$DIMEXE
 40
0.18
  9
$DIMTP
 40
0.0
  9
$DIMTM
 40
0.0
  9
$DIMTXT
 40
0.18
  9
$DIMCEN
 40
0.09
  9
$DIMTSZ
 40
0.0
  9
$DIMTOL
 70
     0
  9
$DIMLIM
 70
     0
  9
$DIMTIH
 70
     1
  9
$DIMTOH
 70
     1
  9
$DIMSE1
 70
     0
  9
$DIMSE2
 70
     0
  9
$DIMTAD
 70
     0
  9
$DIMZIN
 70
     0
  9
$DIMBLK
  1

  9
$DIMASO
 70
     1
  9
$DIMSHO
 70
     1
  9
$DIMPOST
  1

  9
$DIMAPOST
  1

  9
$DIMALT
 70
     0
  9
$DIMALTD
 70
     2
  9
$DIMALTF
 40
25.4
  9
$DIMLFAC
 40
1.0
  9
$DIMTOFL
 70
     0
  9
$DIMTVP
 40
0.0
  9
$DIMTIX
 70
     0
  9
$DIMSOXD
 70
     0
  9
$DIMSAH
 70
     0
  9
$DIMBLK1
  1

  9
$DIMBLK2
  1

  9
$DIMSTYLE
  2
Standard
  9
$DIMCLRD
 70
     0
  9
$DIMCLRE
 70
     0
  9
$DIMCLRT
 70
     0
  9
$DIMTFAC
 40
1.0
  9
$DIMGAP
 40
0.09
  9
$DIMJUST
 70
     0
  9
$DIMSD1
 70
     0
  9
$DIMSD2
 70
     0
  9
$DIMTOLJ
 70
     1
  9
$DIMTZIN
 70
     0
  9
$DIMALTZ
 70
     0
  9
$DIMALTTZ
 70
     0
  9
$DIMUPT
 70
     0
  9
$DIMDEC
 70
     4
  9
$DIMTDEC
 70
     4
  9
$DIMALTU
 70
     2
  9
$DIMALTTD
 70
     2
  9
$DIMTXSTY
  7
Standard
  9
$DIMAUNIT
 70
     0
  9
$DIMADEC
 70
     0
  9
$DIMALTRND
 40
0.0
  9
$DIMAZIN
 70
     0
  9
$DIMDSEP
 70
    46
  9
$DIMATFIT
 70
     3
  9
$DIMFRAC
 70
     0
  9
$DIMLDRBLK
  1

  9
$DIMLUNIT
 70
     2
  9
$DIMLWD
 70
    -2
  9
$DIMLWE
 70
    -2
  9
$DIMTMOVE
 70
     0
  9
$DIMFXL
 40
1.0
  9
$DIMFXLON
 70
     0
  9
$DIMJOGANG
 40
0.7853981633974483
  9
$DIMTFILL
 70
     0
  9
$DIMTFILLCLR
 70
     0
  9
$DIMARCSYM
 70
     0
  9
$DIMLTYPE
  6

  9
$DIMLTEX1
  6

  9
$DIMLTEX2
  6

  9
$DIMTXTDIRECTION
 70
     0
  9
$LUNITS
 70
     2
  9
$LUPREC
 70
     4
  9
$SKETCHINC
 40
0.1
  9
$FILLETRAD
 40
0.0
  9
$AUNITS
 70
     0
  9
$AUPREC
 70
     0
  9
$MENU
  1
.
  9
$ELEVATION
 40
0.0
  9
$PELEVATION
 40
0.0
  9
$THICKNESS
 40
0.0
  9
$LIMCHECK
 70
     0
  9
$CHAMFERA
 40
0.0
  9
$CHAMFERB
 40
0.0
  9
$CHAMFERC
 40
0.0
  9
$CHAMFERD
 40
0.0
  9
$SKPOLY
 70
     0
  9
$TDCREATE
 40
2460430.141526019
  9
$TDUCREATE
 40
2460430.141526019
  9
$TDUPDATE
 40
2460430.141526204
  9
$TDUUPDATE
 40
2460430.141526204
  9
$TDINDWG
 40
0.0000000116
  9
$TDUSRTIMER
 40
0.0000000116
  9
$USRTIMER
 70
     1
  9
$ANGBASE
 50
0.0
  9
$ANGDIR
 70
     0
  9
$PDMODE
 70
     0
  9
$PDSIZE
 40
0.0
  9
$PLINEWID
 40
0.0
  9
$SPLFRAME
 70
     0
  9
$SPLINETYPE
 70
     6
  9
$SPLINESEGS
 70
     8
  9
$HANDSEED
  5
38E
  9
$SURFTAB1
 70
     6
  9
$SURFTAB2
 70
     6
  9
$SURFTYPE
 70
     6
  9
$SURFU
 70
     6
  9
$SURFV
 70
     6
  9
$UCSBASE
  2

  9
$UCSNAME
  2

  9
$UCSORG
 10
0.0
 20
0.0
 30
0.0
  9
$UCSXDIR
 10
1.0
 20
0.0
 30
0.0
  9
$UCSYDIR
 10
0.0
 20
1.0
 30
0.0
  9
$UCSORTHOREF
  2

  9
$UCSORTHOVIEW
 70
     0
  9
$UCSORGTOP
 10
0.0
 20
0.0
 30
0.0
  9
$UCSORGBOTTOM
 10
0.0
 20
0.0
 30
0.0
  9
$UCSORGLEFT
 10
0.0
 20
0.0
 30
0.0
  9
$UCSORGRIGHT
 10
0.0
 20
0.0
 30
0.0
  9
$UCSORGFRONT
 10
0.0
 20
0.0
 30
0.0
  9
$UCSORGBACK
 10
0.0
 20
0.0
 30
0.0
  9
$PUCSBASE
  2

  9
$PUCSNAME
  2

  9
$PUCSORG
 10
0.0
 20
0.0
 30
0.0
  9
$PUCSXDIR
 10
1.0
 20
0.0
 30
0.0
  9
$PUCSYDIR
 10
0.0
 20
1.0
 30
0.0
  9
$PUCSORTHOREF
  2

  9
$PUCSORTHOVIEW
 70
     0
  9
$PUCSORGTOP
 10
0.0
 20
0.0
 30
0.0
  9
$PUCSORGBOTTOM
 10
0.0
 20
0.0
 30
0.0
  9
$PUCSORGLEFT
 10
0.0
 20
0.0
 30
0.0
  9
$PUCSORGRIGHT
 10
0.0
 20
0.0
 30
0.0
  9
$PUCSORGFRONT
 10
0.0
 20
0.0
 30
0.0
  9
$PUCSORGBACK
 10
0.0
 20
0.0
 30
0.0
  9
$USERI1
 70
     0
  9
$USERI2
 70
     0
  9
$USERI3
 70
     0
  9
$USERI4
 70
     0
  9
$USERI5
 70
     0
  9
$USERR1
 40
0.0
  9
$USERR2
 40
0.0
  9
$USERR3
 40
0.0
  9
$USERR4
 40
0.0
  9
$USERR5
 40
0.0
  9
$WORLDVIEW
 70
     1
  9
$SHADEDGE
 70
     3
  9
$SHADEDIF
 70
    70
  9
$TILEMODE
 70
     1
  9
$MAXACTVP
 70
    64
  9
$PINSBASE
 10
0.0
 20
0.0
 30
0.0
  9
$PLIMCHECK
 70
     0
  9
$PEXTMIN
 10
1.000000000000000E+20
 20
1.000000000000000E+20
 30
1.000000000000000E+20
  9
$PEXTMAX
 10
-1.000000000000000E+20
 20
-1.000000000000000E+20
 30
-1.000000000000000E+20
  9
$PLIMMIN
 10
0.0
 20
0.0
  9
$PLIMMAX
 10
12.0
 20
9.0
  9
$UNITMODE
 70
     0
  9
$VISRETAIN
 70
     1
  9
$PLINEGEN
 70
     0
  9
$PSLTSCALE
 70
     1
  9
$TREEDEPTH
 70
  3020
  9
$CMLSTYLE
  2
Standard
  9
$CMLJUST
 70
     0
  9
$CMLSCALE
 40
1.0
  9
$PROXYGRAPHICS
 70
     1
  9
$MEASUREMENT
 70
     1
  9
$CELWEIGHT
370
    -1
  9
$ENDCAPS
280
     0
  9
$JOINSTYLE
280
     0
  9
$LWDISPLAY
290
     0
  9
$INSUNITS
 70
     4
  9
$HYPERLINKBASE
  1

  9
$STYLESHEET
  1

  9
$XEDIT
290
     1
  9
$CEPSNTYPE
380
     0
  9
$PSTYLEMODE
290
     1
  9
$FINGERPRINTGUID
  2
{c5f5dd7f-76ce-49cd-9214-76eeafaff8e1}
  9
$VERSIONGUID
  2
{FAEB1C32-E019-11D5-929B-00C0DF256EC4}
  9
$EXTNAMES
290
     1
  9
$PSVPSCALE
 40
0.0
  9
$OLESTARTUP
290
     0
  9
$SORTENTS
280
   127
  9
$INDEXCTL
280
     0
  9
$HIDETEXT
280
     1
  9
$XCLIPFRAME
280
     2
  9
$HALOGAP
280
     0
  9
$OBSCOLOR
 70
   257
  9
$OBSLTYPE
280
     0
  9
$INTERSECTIONDISPLAY
280
     0
  9
$INTERSECTIONCOLOR
 70
   257
  9
$DIMASSOC
280
     2
  9
$PROJECTNAME
  1

  9
$CAMERADISPLAY
290
     0
  9
$LENSLENGTH
 40
50.0
  9
$CAMERAHEIGHT
 40
0.0
  9
$STEPSPERSEC
 40
2.0
  9
$STEPSIZE
 40
6.0
  9
$3DDWFPREC
 40
2.0
  9
$PSOLWIDTH
 40
0.25
  9
$PSOLHEIGHT
 40
4.0
  9
$LOFTANG1
 40
1.570796326794897
  9
$LOFTANG2
 40
1.570796326794897
  9
$LOFTMAG1
 40
0.0
  9
$LOFTMAG2
 40
0.0
  9
$LOFTPARAM
 70
     7
  9
$LOFTNORMALS
280
     1
  9
$LATITUDE
 40
37.795
  9
$LONGITUDE
 40
-122.394
  9
$NORTHDIRECTION
 40
0.0
  9
$TIMEZONE
 70
 -8000
  9
$LIGHTGLYPHDISPLAY
280
     1
  9
$TILEMODELIGHTSYNCH
280
     1
  9
$CMATERIAL
347
44
  9
$SOLIDHIST
280
     0
  9
$SHOWHIST
280
     1
  9
$DWFFRAME
280
     2
  9
$DGNFRAME
280
     2
  9
$REALWORLDSCALE
290
     1
  9
$INTERFERECOLOR
 62
   256
  9
$CSHADOW
280
     0
  9
$SHADOWPLANELOCATION
 40
0.0
  0
ENDSEC
  0
SECTION
  2
CLASSES
  0
CLASS
  1
ACDBDICTIONARYWDFLT
  2
AcDbDictionaryWithDefault
  3
ObjectDBX Classes
 90
        0
 91
        3
280
     0
281
     0
  0
CLASS
  1
VISUALSTYLE
  2
AcDbVisualStyle
  3
ObjectDBX Classes
 90
     4095
 91
        3
280
     0
281
     0
  0
CLASS
  1
MATERIAL
  2
AcDbMaterial
  3
ObjectDBX Classes
 90
     1153
 91
        3
280
     0
281
     0
  0
CLASS
  1
SCALE
  2
AcDbScale
  3
ObjectDBX Classes
 90
     1153
 91
        3
280
     0
281
     0
  0
CLASS
  1
TABLESTYLE
  2
AcDbTableStyle
  3
ObjectDBX Classes
 90
     4095
 91
        3
280
     0
281
     0
  0
CLASS
  1
MLEADERSTYLE
  2
AcDbMLeaderStyle
  3
ACDB_MLEADERSTYLE_CLASS
 90
     4095
 91
        3
280
     0
281
     0
  0
CLASS
  1
SUN
  2
AcDbSun
  3
SCENEOE
 90
     1153
 91
        3
280
     0
281
     0
  0
CLASS
  1
DICTIONARYVAR
  2
AcDbDictionaryVar
  3
ObjectDBX Classes
 90
        0
 91
        3
280
     0
281
     0
  0
CLASS
  1
CELLSTYLEMAP
  2
AcDbCellStyleMap
  3
ObjectDBX Classes
 90
     1152
 91
        3
280
     0
281
     0
  0
ENDSEC
  0
SECTION
  2
TABLES
  0
TABLE
  2
VPORT
  5
8
330
0
100
AcDbSymbolTable
 70
     1
  0
VPORT
  5
29
330
8
100
AcDbSymbolTableRecord
100
AcDbViewportTableRecord
  2
*Active
 70
     0
 10
0.0
 20
0.0
 11
1.0
 21
1.0
 12
0.0
 22
0.0
 13
0.0
 23
0.0
 14
0.5
 24
0.5
 15
0.5
 25
0.5
 16
0.0
 26
0.0
 36
1.0
 17
0.0
 27
0.0
 37
-1000.0
 40
152.6930882587101
 41
1.777777777777778
 42
50.0
 43
2.540000000000036
 44
1549.940000000021
 50
0.0
 51
0.0
 71
     0
 72
   100
 73
     1
 74
     3
 75
     0
 76
     0
 77
     0
 78
     0
281
     0
 65
     1
110
0.0
120
0.0
130
0.0
111
1.0
121
0.0
131
0.0
112
0.0
122
1.0
132
0.0
 79
     0
146
0.0
348
2F
 60
     3
 61
     5
292
     1
282
     1
141
0.0
142
0.0
 63
   250
361
5D
  0
ENDTAB
  0
TABLE
  2
LTYPE
  5
5
330
0
100
AcDbSymbolTable
 70
     1
  0
LTYPE
  5
14
330
5
100
AcDbSymbolTableRecord
100
AcDbLinetypeTableRecord
  2
ByBlock
 70
     0
  3

 72
    65
 73
     0
 40
0.0
  0
LTYPE
  5
15
330
5
100
AcDbSymbolTableRecord
100
AcDbLinetypeTableRecord
  2
ByLayer
 70
     0
  3

 72
    65
 73
     0
 40
0.0
  0
LTYPE
  5
16
330
5
100
AcDbSymbolTableRecord
100
AcDbLinetypeTableRecord
  2
Continuous
 70
     0
  3
Solid line
 72
    65
 73
     0
 40
0.0
  0
ENDTAB
  0
TABLE
  2
LAYER
  5
2
330
0
100
AcDbSymbolTable
 70
     3
  0
LAYER
  5
10
330
2
100
AcDbSymbolTableRecord
100
AcDbLayerTableRecord
  2
0
 70
     0
 62
     7
  6
Continuous
370
    -3
390
F
347
46
348
0
  0
LAYER
  5
5E
330
2
100
AcDbSymbolTableRecord
100
AcDbLayerTableRecord
  2
ProfileEdges
 70
     0
 62
     7
  6
Continuous
370
    -3
390
F
347
46
348
0
  0
LAYER
  5
5F
330
2
100
AcDbSymbolTableRecord
100
AcDbLayerTableRecord
  2
SectionCutEdges
 70
     0
 62
     7
  6
Continuous
370
    -3
390
F
347
46
348
0
  0
ENDTAB
  0
TABLE
  2
STYLE
  5
3
330
0
100
AcDbSymbolTable
 70
     1
  0
STYLE
  5
11
330
3
100
AcDbSymbolTableRecord
100
AcDbTextStyleTableRecord
  2
Standard
 70
     0
 40
0.0
 41
1.0
 50
0.0
 71
     0
 42
0.2
  3
txt
  4

  0
ENDTAB
  0
TABLE
  2
VIEW
  5
6
330
0
100
AcDbSymbolTable
 70
     0
  0
ENDTAB
  0
TABLE
  2
UCS
  5
7
330
0
100
AcDbSymbolTable
 70
     0
  0
ENDTAB
  0
TABLE
  2
APPID
  5
9
330
0
100
AcDbSymbolTable
 70
     1
  0
APPID
  5
12
330
9
100
AcDbSymbolTableRecord
100
AcDbRegAppTableRecord
  2
ACAD
 70
     0
  0
ENDTAB
  0
TABLE
  2
DIMSTYLE
  5
A
330
0
100
AcDbSymbolTable
 70
     1
100
AcDbDimStyleTable
  0
DIMSTYLE
105
27
330
A
100
AcDbSymbolTableRecord
100
AcDbDimStyleTableRecord
  2
Standard
 70
     0
178
     0
340
11
  0
ENDTAB
  0
TABLE
  2
BLOCK_RECORD
  5
1
330
0
100
AcDbSymbolTable
 70
     1
  0
BLOCK_RECORD
  5
1F
330
1
100
AcDbSymbolTableRecord
100
AcDbBlockTableRecord
  2
*Model_Space
340
22
 70
     0
280
     1
281
     0
  0
BLOCK_RECORD
  5
1B
330
1
100
AcDbSymbolTableRecord
100
AcDbBlockTableRecord
  2
*Paper_Space
340
1E
 70
     0
280
     1
281
     0
  0
BLOCK_RECORD
  5
23
330
1
100
AcDbSymbolTableRecord
100
AcDbBlockTableRecord
  2
*Paper_Space0
340
26
 70
     0
280
     1
281
     0
  0
ENDTAB
  0
ENDSEC
  0
SECTION
  2
BLOCKS
  0
BLOCK
  5
20
330
1F
100
AcDbEntity
  8
0
100
AcDbBlockBegin
  2
*Model_Space
 70
     0
 10
0.0
 20
0.0
 30
0.0
  3
*Model_Space
  1

  0
ENDBLK
  5
21
330
1F
100
AcDbEntity
  8
0
100
AcDbBlockEnd
  0
BLOCK
  5
1C
330
1B
100
AcDbEntity
 67
     1
  8
0
100
AcDbBlockBegin
  2
*Paper_Space
 70
     0
 10
0.0
 20
0.0
 30
0.0
  3
*Paper_Space
  1

  0
ENDBLK
  5
1D
330
1B
100
AcDbEntity
 67
     1
  8
0
100
AcDbBlockEnd
  0
BLOCK
  5
24
330
23
100
AcDbEntity
  8
0
100
AcDbBlockBegin
  2
*Paper_Space0
 70
     0
 10
0.0
 20
0.0
 30
0.0
  3
*Paper_Space0
  1

  0
ENDBLK
  5
25
330
23
100
AcDbEntity
  8
0
100
AcDbBlockEnd
  0
ENDSEC
  0
SECTION
  2
ENTITIES
  0
LINE
  5
60
330
1F
100
AcDbEntity
  8
0
100
AcDbLine
 10
8.312149237884077
 20
36.92211529768617
 30
0.0
 11
10.46214923788408
 21
36.92211529768617
 31
0.0
  0
LINE
  5
61
330
1F
100
AcDbEntity
  8
0
100
AcDbLine
 10
8.212149237884077
 20
36.92211529768617
 30
0.0
 11
8.28881612873368
 21
37.50445814916684
 31
0.0
  0
LINE
  5
62
330
1F
100
AcDbEntity
  8
0
100
AcDbLine
 10
8.28881612873368
 20
37.50445814916684
 30
0.0
 11
8.513592079369097
 21
38.04711529768617
 31
0.0
  0
LINE
  5
63
330
1F
100
AcDbEntity
  8
0
100
AcDbLine
 10
8.513592079369097
 20
38.04711529768617
 30
0.0
 11
8.871158980214336
 21
38.5131055553559
 31
0.0
  0
LINE
  5
64
330
1F
100
AcDbEntity
  8
0
100
AcDbLine
 10
8.871158980214336
 20
38.5131055553559
 30
0.0
 11
9.337149237884068
 21
38.87067245620116
 31
0.0
  0
LINE
  5
65
330
1F
100
AcDbEntity
  8
0
100
AcDbLine
 10
9.337149237884068
 20
38.87067245620116
 30
0.0
 11
9.879806386403404
 21
39.09544840683658
 31
0.0
  0
LINE
  5
66
330
1F
100
AcDbEntity
  8
0
100
AcDbLine
 10
9.879806386403404
 20
39.09544840683658
 30
0.0
 11
10.46214923788408
 21
39.17211529768618
 31
0.0
  0
LINE
  5
67
330
1F
100
AcDbEntity
  8
0
100
AcDbLine
 10
10.46214923788408
 20
39.17211529768618
 30
0.0
 11
11.04449208936476
 21
39.09544840683658
 31
0.0
  0
LINE
  5
68
330
1F
100
AcDbEntity
  8
0
100
AcDbLine
 10
11.04449208936476
 20
39.09544840683658
 30
0.0
 11
11.58714923788408
 21
38.87067245620116
 31
0.0
  0
LINE
  5
69
330
1F
100
AcDbEntity
  8
0
100
AcDbLine
 10
11.58714923788408
 20
38.87067245620116
 30
0.0
 11
12.05313949555383
 21
38.5131055553559
 31
0.0
  0
LINE
  5
6A
330
1F
100
AcDbEntity
  8
0
100
AcDbLine
 10
12.05313949555383
 20
38.5131055553559
 30
0.0
 11
12.41070639639907
 21
38.04711529768617
 31
0.0
  0
LINE
  5
6B
330
1F
100
AcDbEntity
  8
0
100
AcDbLine
 10
12.41070639639907
 20
38.04711529768617
 30
0.0
 11
12.63548234703449
 21
37.50445814916684
 31
0.0
  0
LINE
  5
6C
330
1F
100
AcDbEntity
  8
0
100
AcDbLine
 10
12.63548234703449
 20
37.50445814916684
 30
0.0
 11
12.71214923788409
 21
36.92211529768617
 31
0.0
  0
LINE
  5
6D
330
1F
100
AcDbEntity
  8
0
100
AcDbLine
 10
12.71214923788409
 20
36.92211529768617
 30
0.0
 11
12.63548234703449
 21
36.33977244620549
 31
0.0
  0
LINE
  5
6E
330
1F
100
AcDbEntity
  8
0
100
AcDbLine
 10
12.63548234703449
 20
36.33977244620549
 30
0.0
 11
12.41070639639907
 21
35.79711529768616
 31
0.0
  0
LINE
  5
6F
330
1F
100
AcDbEntity
  8
0
100
AcDbLine
 10
12.41070639639907
 20
35.79711529768616
 30
0.0
 11
12.05313949555381
 21
35.33112504001643
 31
0.0
  0
LINE
  5
70
330
1F
100
AcDbEntity
  8
0
100
AcDbLine
 10
12.05313949555381
 20
35.33112504001643
 30
0.0
 11
11.58714923788408
 21
34.97355813917117
 31
0.0
  0
LINE
  5
71
330
1F
100
AcDbEntity
  8
0
100
AcDbLine
 10
11.58714923788408
 20
34.97355813917117
 30
0.0
 11
11.04449208936476
 21
34.74878218853575
 31
0.0
  0
LINE
  5
72
330
1F
100
AcDbEntity
  8
0
100
AcDbLine
 10
11.04449208936476
 20
34.74878218853575
 30
0.0
 11
10.46214923788408
 21
34.67211529768616
 31
0.0
  0
LINE
  5
73
330
1F
100
AcDbEntity
  8
0
100
AcDbLine
 10
10.46214923788408
 20
34.67211529768616
 30
0.0
 11
9.879806386403404
 21
34.74878218853575
 31
0.0
  0
LINE
  5
74
330
1F
100
AcDbEntity
  8
0
100
AcDbLine
 10
9.879806386403404
 20
34.74878218853575
 30
0.0
 11
9.337149237884091
 21
34.97355813917117
 31
0.0
  0
LINE
  5
75
330
1F
100
AcDbEntity
  8
0
100
AcDbLine
 10
9.337149237884091
 20
34.97355813917117
 30
0.0
 11
8.871158980214359
 21
35.33112504001643
 31
0.0
  0
LINE
  5
76
330
1F
100
AcDbEntity
  8
0
100
AcDbLine
 10
8.871158980214359
 20
35.33112504001643
 30
0.0
 11
8.513592079369097
 21
35.79711529768616
 31
0.0
  0
LINE
  5
77
330
1F
100
AcDbEntity
  8
0
100
AcDbLine
 10
8.513592079369097
 20
35.79711529768616
 30
0.0
 11
8.28881612873368
 21
36.33977244620549
 31
0.0
  0
LINE
  5
78
330
1F
100
AcDbEntity
  8
0
100
AcDbLine
 10
8.28881612873368
 20
36.33977244620549
 30
0.0
 11
8.212149237884077
 21
36.92211529768617
 31
0.0
  0
LINE
  5
79
330
1F
100
AcDbEntity
  8
0
100
AcDbLine
 10
-10.21146535831908
 20
35.63030103814202
 30
0.0
 11
-10.09424184370596
 21
35.26629117697499
 31
0.0
  0
LINE
  5
7A
330
1F
100
AcDbEntity
  8
0
100
AcDbLine
 10
-10.09424184370596
 20
35.26629117697499
 30
0.0
 11
-10.05105423305903
 21
34.95163858511875
 31
0.0
  0
LINE
  5
7B
330
1F
100
AcDbEntity
  8
0
100
AcDbLine
 10
-10.05105423305903
 20
34.95163858511875
 30
0.0
 11
-9.631517443917373
 21
34.97631721977415
 31
0.0
  0
LINE
  5
7C
330
1F
100
AcDbEntity
  8
0
100
AcDbLine
 10
-9.631517443917373
 20
34.97631721977415
 30
0.0
 11
-9.631517443917373
 21
34.70485223856483
 31
0.0
  0
LINE
  5
7D
330
1F
100
AcDbEntity
  8
0
100
AcDbLine
 10
-9.631517443917373
 20
34.70485223856483
 30
0.0
 11
-11.04436927793855
 21
34.70485223856483
 31
0.0
  0
LINE
  5
7E
330
1F
100
AcDbEntity
  8
0
100
AcDbLine
 10
-11.04436927793855
 20
34.70485223856483
 30
0.0
 11
-11.04436927793855
 21
34.90845097447181
 31
0.0
  0
LINE
  5
7F
330
1F
100
AcDbEntity
  8
0
100
AcDbLine
 10
-11.04436927793855
 20
34.90845097447181
 30
0.0
 11
-10.88511496367798
 21
34.92927357246229
 31
0.0
  0
LINE
  5
80
330
1F
100
AcDbEntity
  8
0
100
AcDbLine
 10
-10.88511496367798
 20
34.92927357246229
 30
0.0
 11
-10.77136188206328
 21
34.9855717077699
 31
0.0
  0
LINE
  5
81
330
1F
100
AcDbEntity
  8
0
100
AcDbLine
 10
-10.77136188206328
 20
34.9855717077699
 30
0.0
 11
-10.70311003309446
 21
35.07734538039465
 31
0.0
  0
LINE
  5
82
330
1F
100
AcDbEntity
  8
0
100
AcDbLine
 10
-10.70311003309446
 20
35.07734538039465
 30
0.0
 11
-10.68035941677151
 21
35.20459459033651
 31
0.0
  0
LINE
  5
83
330
1F
100
AcDbEntity
  8
0
100
AcDbLine
 10
-10.68035941677151
 20
35.20459459033651
 30
0.0
 11
-10.74205600340999
 21
35.49456854753737
 31
0.0
  0
LINE
  5
84
330
1F
100
AcDbEntity
  8
0
100
AcDbLine
 10
-10.74205600340999
 20
35.49456854753737
 30
0.0
 11
-10.95799405664467
 21
36.07451646193906
 31
0.0
  0
LINE
  5
85
330
1F
100
AcDbEntity
  8
0
100
AcDbLine
 10
-10.95799405664467
 20
36.07451646193906
 30
0.0
 11
-12.56210530924511
 21
36.03749850995597
 31
0.0
  0
LINE
  5
86
330
1F
100
AcDbEntity
  8
0
100
AcDbLine
 10
-12.56210530924511
 20
36.03749850995597
 30
0.0
 11
-12.77804336247981
 21
35.37734503292425
 31
0.0
  0
LINE
  5
87
330
1F
100
AcDbEntity
  8
0
100
AcDbLine
 10
-12.77804336247981
 20
35.37734503292425
 30
0.0
 11
-12.932284829076
 21
34.95163858511875
 31
0.0
  0
LINE
  5
88
330
1F
100
AcDbEntity
  8
0
100
AcDbLine
 10
-12.932284829076
 20
34.95163858511875
 30
0.0
 11
-12.45105145329586
 21
34.97631721977415
 31
0.0
  0
LINE
  5
89
330
1F
100
AcDbEntity
  8
0
100
AcDbLine
 10
-12.45105145329586
 20
34.97631721977415
 30
0.0
 11
-12.45105145329586
 21
34.70485223856483
 31
0.0
  0
LINE
  5
8A
330
1F
100
AcDbEntity
  8
0
100
AcDbLine
 10
-12.45105145329586
 20
34.70485223856483
 30
0.0
 11
-13.60477762343543
 21
34.70485223856483
 31
0.0
  0
LINE
  5
8B
330
1F
100
AcDbEntity
  8
0
100
AcDbLine
 10
-13.60477762343543
 20
34.70485223856483
 30
0.0
 11
-13.60477762343543
 21
34.90845097447181
 31
0.0
  0
LINE
  5
8C
330
1F
100
AcDbEntity
  8
0
100
AcDbLine
 10
-13.60477762343543
 20
34.90845097447181
 30
0.0
 11
-13.46596030349882
 21
34.92541753579739
 31
0.0
  0
LINE
  5
8D
330
1F
100
AcDbEntity
  8
0
100
AcDbLine
 10
-13.46596030349882
 20
34.92541753579739
 30
0.0
 11
-13.35799127688149
 21
34.97631721977415
 31
0.0
  0
LINE
  5
8E
330
1F
100
AcDbEntity
  8
0
100
AcDbLine
 10
-13.35799127688149
 20
34.97631721977415
 30
0.0
 11
-13.20991946894913
 21
35.16140697968957
 31
0.0
  0
LINE
  5
8F
330
1F
100
AcDbEntity
  8
0
100
AcDbLine
 10
-13.20991946894913
 20
35.16140697968957
 30
0.0
 11
-13.06801731968065
 21
35.50690786486506
 31
0.0
  0
LINE
  5
90
330
1F
100
AcDbEntity
  8
0
100
AcDbLine
 10
-13.06801731968065
 20
35.50690786486506
 30
0.0
 11
-13.00632073304217
 21
35.6796583074528
 31
0.0
  0
LINE
  5
91
330
1F
100
AcDbEntity
  8
0
100
AcDbLine
 10
-13.00632073304217
 20
35.6796583074528
 30
0.0
 11
-11.73537104828951
 21
39.14083681787145
 31
0.0
  0
LINE
  5
92
330
1F
100
AcDbEntity
  8
0
100
AcDbLine
 10
-11.73537104828951
 20
39.14083681787145
 30
0.0
 11
-11.58729924035715
 21
39.14083681787145
 31
0.0
  0
LINE
  5
93
330
1F
100
AcDbEntity
  8
0
100
AcDbLine
 10
-11.58729924035715
 20
39.14083681787145
 30
0.0
 11
-10.21146535831908
 21
35.63030103814202
 31
0.0
  0
LINE
  5
94
330
1F
100
AcDbEntity
  8
0
100
AcDbLine
 10
-11.77238900027258
 20
38.24006665294968
 30
0.0
 11
-12.0315146641542
 21
37.54289522393485
 31
0.0
  0
LINE
  5
95
330
1F
100
AcDbEntity
  8
0
100
AcDbLine
 10
-12.0315146641542
 20
37.54289522393485
 30
0.0
 11
-12.36467623200198
 21
36.60510710702997
 31
0.0
  0
LINE
  5
96
330
1F
100
AcDbEntity
  8
0
100
AcDbLine
 10
-12.36467623200198
 20
36.60510710702997
 30
0.0
 11
-12.46956042928739
 21
36.30279383250144
 31
0.0
  0
LINE
  5
97
330
1F
100
AcDbEntity
  8
0
100
AcDbLine
 10
-12.46956042928739
 20
36.30279383250144
 30
0.0
 11
-11.04436927793855
 21
36.30279383250144
 31
0.0
  0
LINE
  5
98
330
1F
100
AcDbEntity
  8
0
100
AcDbLine
 10
-11.04436927793855
 20
36.30279383250144
 30
0.0
 11
-11.48241504307174
 21
37.48119863729638
 31
0.0
  0
LINE
  5
99
330
1F
100
AcDbEntity
  8
0
100
AcDbLine
 10
-11.48241504307174
 20
37.48119863729638
 30
0.0
 11
-11.77238900027258
 21
38.24006665294968
 31
0.0
  0
LINE
  5
9A
330
1F
100
AcDbEntity
  8
0
100
AcDbLine
 10
-5.269568768576907
 20
38.82001456735136
 30
0.0
 11
-5.431522308502936
 21
38.7984207620279
 31
0.0
  0
LINE
  5
9B
330
1F
100
AcDbEntity
  8
0
100
AcDbLine
 10
-5.431522308502936
 20
38.7984207620279
 30
0.0
 11
-5.547203408450083
 21
38.74597866338519
 31
0.0
  0
LINE
  5
9C
330
1F
100
AcDbEntity
  8
0
100
AcDbLine
 10
-5.547203408450083
 20
38.74597866338519
 30
0.0
 11
-5.618154483084323
 21
38.67194275941903
 31
0.0
  0
LINE
  5
9D
330
1F
100
AcDbEntity
  8
0
100
AcDbLine
 10
-5.618154483084323
 20
38.67194275941903
 30
0.0
 11
-5.658257264399341
 21
38.57322822079745
 31
0.0
  0
LINE
  5
9E
330
1F
100
AcDbEntity
  8
0
100
AcDbLine
 10
-5.658257264399341
 20
38.57322822079745
 30
0.0
 11
-5.682935899054739
 21
38.27708460493276
 31
0.0
  0
LINE
  5
9F
330
1F
100
AcDbEntity
  8
0
100
AcDbLine
 10
-5.682935899054739
 20
38.27708460493276
 30
0.0
 11
-5.682935899054739
 21
38.06114655169807
 31
0.0
  0
LINE
  5
A0
330
1F
100
AcDbEntity
  8
0
100
AcDbLine
 10
-5.682935899054739
 20
38.06114655169807
 30
0.0
 11
-5.695275216382448
 21
34.60613769994326
 31
0.0
  0
LINE
  5
A1
330
1F
100
AcDbEntity
  8
0
100
AcDbLine
 10
-5.695275216382448
 20
34.60613769994326
 30
0.0
 11
-5.991418832247115
 21
34.60613769994326
 31
0.0
  0
LINE
  5
A2
330
1F
100
AcDbEntity
  8
0
100
AcDbLine
 10
-5.991418832247115
 20
34.60613769994326
 30
0.0
 11
-8.669050692357118
 21
38.20304870096657
 31
0.0
  0
LINE
  5
A3
330
1F
100
AcDbEntity
  8
0
100
AcDbLine
 10
-8.669050692357118
 20
38.20304870096657
 30
0.0
 11
-8.656711375029408
 21
35.5624347928397
 31
0.0
  0
LINE
  5
A4
330
1F
100
AcDbEntity
  8
0
100
AcDbLine
 10
-8.656711375029408
 20
35.5624347928397
 30
0.0
 11
-8.669050692357118
 21
34.95163858511875
 31
0.0
  0
LINE
  5
A5
330
1F
100
AcDbEntity
  8
0
100
AcDbLine
 10
-8.669050692357118
 20
34.95163858511875
 30
0.0
 11
-8.224835268560065
 21
34.97631721977415
 31
0.0
  0
LINE
  5
A6
330
1F
100
AcDbEntity
  8
0
100
AcDbLine
 10
-8.224835268560065
 20
34.97631721977415
 30
0.0
 11
-8.224835268560065
 21
34.70485223856483
 31
0.0
  0
LINE
  5
A7
330
1F
100
AcDbEntity
  8
0
100
AcDbLine
 10
-8.224835268560065
 20
34.70485223856483
 30
0.0
 11
-9.353882804044218
 21
34.70485223856483
 31
0.0
  0
LINE
  5
A8
330
1F
100
AcDbEntity
  8
0
100
AcDbLine
 10
-9.353882804044218
 20
34.70485223856483
 30
0.0
 11
-9.353882804044218
 21
34.90845097447181
 31
0.0
  0
LINE
  5
A9
330
1F
100
AcDbEntity
  8
0
100
AcDbLine
 10
-9.353882804044218
 20
34.90845097447181
 30
0.0
 11
-9.14874165347128
 21
34.94392651178894
 31
0.0
  0
LINE
  5
AA
330
1F
100
AcDbEntity
  8
0
100
AcDbLine
 10
-9.14874165347128
 20
34.94392651178894
 30
0.0
 11
-9.02689089486027
 21
35.05035312374032
 31
0.0
  0
LINE
  5
AB
330
1F
100
AcDbEntity
  8
0
100
AcDbLine
 10
-9.02689089486027
 20
35.05035312374032
 30
0.0
 11
-8.966736722887763
 21
35.20767941966844
 31
0.0
  0
LINE
  5
AC
330
1F
100
AcDbEntity
  8
0
100
AcDbLine
 10
-8.966736722887763
 20
35.20767941966844
 30
0.0
 11
-8.946685332230254
 21
35.3958540089158
 31
0.0
  0
LINE
  5
AD
330
1F
100
AcDbEntity
  8
0
100
AcDbLine
 10
-8.946685332230254
 20
35.3958540089158
 30
0.0
 11
-8.940515673566429
 21
38.77682695670443
 31
0.0
  0
LINE
  5
AE
330
1F
100
AcDbEntity
  8
0
100
AcDbLine
 10
-8.940515673566429
 20
38.77682695670443
 30
0.0
 11
-9.353882804044218
 21
38.75214832204904
 31
0.0
  0
LINE
  5
AF
330
1F
100
AcDbEntity
  8
0
100
AcDbLine
 10
-9.353882804044218
 20
38.75214832204904
 30
0.0
 11
-9.353882804044218
 21
39.02361330325835
 31
0.0
  0
LINE
  5
B0
330
1F
100
AcDbEntity
  8
0
100
AcDbLine
 10
-9.353882804044218
 20
39.02361330325835
 30
0.0
 11
-8.619693423046323
 21
39.02361330325835
 31
0.0
  0
LINE
  5
B1
330
1F
100
AcDbEntity
  8
0
100
AcDbLine
 10
-8.619693423046323
 20
39.02361330325835
 30
0.0
 11
-5.991418832247115
 21
35.50690786486506
 31
0.0
  0
LINE
  5
B2
330
1F
100
AcDbEntity
  8
0
100
AcDbLine
 10
-5.991418832247115
 20
35.50690786486506
 30
0.0
 11
-5.979079514919427
 21
38.33261153290739
 31
0.0
  0
LINE
  5
B3
330
1F
100
AcDbEntity
  8
0
100
AcDbLine
 10
-5.979079514919427
 20
38.33261153290739
 30
0.0
 11
-5.960570538927874
 21
38.77682695670443
 31
0.0
  0
LINE
  5
B4
330
1F
100
AcDbEntity
  8
0
100
AcDbLine
 10
-5.960570538927874
 20
38.77682695670443
 30
0.0
 11
-6.404785962724945
 21
38.75214832204904
 31
0.0
  0
LINE
  5
B5
330
1F
100
AcDbEntity
  8
0
100
AcDbLine
 10
-6.404785962724945
 20
38.75214832204904
 30
0.0
 11
-6.404785962724945
 21
39.02361330325835
 31
0.0
  0
LINE
  5
B6
330
1F
100
AcDbEntity
  8
0
100
AcDbLine
 10
-6.404785962724945
 20
39.02361330325835
 30
0.0
 11
-5.269568768576907
 21
39.02361330325835
 31
0.0
  0
LINE
  5
B7
330
1F
100
AcDbEntity
  8
0
100
AcDbLine
 10
-5.269568768576907
 20
39.02361330325835
 30
0.0
 11
-5.269568768576907
 21
38.82001456735136
 31
0.0
  0
LINE
  5
B8
330
1F
100
AcDbEntity
  8
0
100
AcDbLine
 10
-3.208902774851738
 20
39.02978296192219
 30
0.0
 11
-2.659031946436285
 21
38.99816346126996
 31
0.0
  0
LINE
  5
B9
330
1F
100
AcDbEntity
  8
0
100
AcDbLine
 10
-2.659031946436285
 20
38.99816346126996
 30
0.0
 11
-2.169315289993359
 21
38.89713530064947
 31
0.0
  0
LINE
  5
BA
330
1F
100
AcDbEntity
  8
0
100
AcDbLine
 10
-2.169315289993359
 20
38.89713530064947
 30
0.0
 11
-1.739752805522959
 21
38.72669848006067
 31
0.0
  0
LINE
  5
BB
330
1F
100
AcDbEntity
  8
0
100
AcDbLine
 10
-1.739752805522959
 20
38.72669848006067
 30
0.0
 11
-1.370344493025067
 21
38.48685299950357
 31
0.0
  0
LINE
  5
BC
330
1F
100
AcDbEntity
  8
0
100
AcDbLine
 10
-1.370344493025067
 20
38.48685299950357
 30
0.0
 11
-1.07342966982739
 21
38.17914127364416
 31
0.0
  0
LINE
  5
BD
330
1F
100
AcDbEntity
  8
0
100
AcDbLine
 10
-1.07342966982739
 20
38.17914127364416
 30
0.0
 11
-0.86134765325762
 21
37.80510571714839
 31
0.0
  0
LINE
  5
BE
330
1F
100
AcDbEntity
  8
0
100
AcDbLine
 10
-0.86134765325762
 20
37.80510571714839
 30
0.0
 11
-0.7340984433157512
 21
37.36474633001625
 31
0.0
  0
LINE
  5
BF
330
1F
100
AcDbEntity
  8
0
100
AcDbLine
 10
-0.7340984433157512
 20
37.36474633001625
 30
0.0
 11
-0.6916820400017893
 21
36.85806311224773
 31
0.0
  0
LINE
  5
C0
330
1F
100
AcDbEntity
  8
0
100
AcDbLine
 10
-0.6916820400017893
 20
36.85806311224773
 30
0.0
 11
-0.7086486013273656
 21
36.57348760637776
 31
0.0
  0
LINE
  5
C1
330
1F
100
AcDbEntity
  8
0
100
AcDbLine
 10
-0.7086486013273656
 20
36.57348760637776
 30
0.0
 11
-0.7595482853041171
 21
36.2997090031695
 31
0.0
  0
LINE
  5
C2
330
1F
100
AcDbEntity
  8
0
100
AcDbLine
 10
-0.7595482853041171
 20
36.2997090031695
 30
0.0
 11
-0.8443810919320212
 21
36.036727302623
 31
0.0
  0
LINE
  5
C3
330
1F
100
AcDbEntity
  8
0
100
AcDbLine
 10
-0.8443810919320212
 20
36.036727302623
 30
0.0
 11
-0.9631470212111004
 21
35.78454250473821
 31
0.0
  0
LINE
  5
C4
330
1F
100
AcDbEntity
  8
0
100
AcDbLine
 10
-0.9631470212111004
 20
35.78454250473821
 30
0.0
 11
-1.115074865808365
 21
35.55009547551199
 31
0.0
  0
LINE
  5
C5
330
1F
100
AcDbEntity
  8
0
100
AcDbLine
 10
-1.115074865808365
 20
35.55009547551199
 30
0.0
 11
-1.299393418390807
 21
35.34032708094116
 31
0.0
  0
LINE
  5
C6
330
1F
100
AcDbEntity
  8
0
100
AcDbLine
 10
-1.299393418390807
 20
35.34032708094116
 30
0.0
 11
-1.516102678958467
 21
35.15523732102573
 31
0.0
  0
LINE
  5
C7
330
1F
100
AcDbEntity
  8
0
100
AcDbLine
 10
-1.516102678958467
 20
35.15523732102573
 30
0.0
 11
-1.765202647511324
 21
34.99482619576568
 31
0.0
  0
LINE
  5
C8
330
1F
100
AcDbEntity
  8
0
100
AcDbLine
 10
-1.765202647511324
 20
34.99482619576568
 30
0.0
 11
-2.043994098383961
 21
34.8679625894903
 31
0.0
  0
LINE
  5
C9
330
1F
100
AcDbEntity
  8
0
100
AcDbLine
 10
-2.043994098383961
 20
34.8679625894903
 30
0.0
 11
-2.34977780591092
 21
34.77734572786505
 31
0.0
  0
LINE
  5
CA
330
1F
100
AcDbEntity
  8
0
100
AcDbLine
 10
-2.34977780591092
 20
34.77734572786505
 30
0.0
 11
-2.682553770092201
 21
34.72297561088989
 31
0.0
  0
LINE
  5
CB
330
1F
100
AcDbEntity
  8
0
100
AcDbLine
 10
-2.682553770092201
 20
34.72297561088989
 30
0.0
 11
-3.042321990927841
 21
34.70485223856483
 31
0.0
  0
LINE
  5
CC
330
1F
100
AcDbEntity
  8
0
100
AcDbLine
 10
-3.042321990927841
 20
34.70485223856483
 30
0.0
 11
-4.664942219519823
 21
34.70485223856483
 31
0.0
  0
LINE
  5
CD
330
1F
100
AcDbEntity
  8
0
100
AcDbLine
 10
-4.664942219519823
 20
34.70485223856483
 30
0.0
 11
-4.664942219519823
 21
34.90845097447181
 31
0.0
  0
LINE
  5
CE
330
1F
100
AcDbEntity
  8
0
100
AcDbLine
 10
-4.664942219519823
 20
34.90845097447181
 30
0.0
 11
-4.479852459604393
 21
34.93621443845912
 31
0.0
  0
LINE
  5
CF
330
1F
100
AcDbEntity
  8
0
100
AcDbLine
 10
-4.479852459604393
 20
34.93621443845912
 30
0.0
 11
-4.356459286327446
 21
35.00716551309336
 31
0.0
  0
LINE
  5
D0
330
1F
100
AcDbEntity
  8
0
100
AcDbLine
 10
-4.356459286327446
 20
35.00716551309336
 30
0.0
 11
-4.28396579702723
 21
35.10742246638089
 31
0.0
  0
LINE
  5
D1
330
1F
100
AcDbEntity
  8
0
100
AcDbLine
 10
-4.28396579702723
 20
35.10742246638089
 30
0.0
 11
-4.251575089042032
 21
35.22310356632806
 31
0.0
  0
LINE
  5
D2
330
1F
100
AcDbEntity
  8
0
100
AcDbLine
 10
-4.251575089042032
 20
35.22310356632806
 30
0.0
 11
-4.239235771714323
 21
35.66731899012511
 31
0.0
  0
LINE
  5
D3
330
1F
100
AcDbEntity
  8
0
100
AcDbLine
 10
-4.239235771714323
 20
35.66731899012511
 30
0.0
 11
-4.239235771714323
 21
38.33261153290739
 31
0.0
  0
LINE
  5
D4
330
1F
100
AcDbEntity
  8
0
100
AcDbLine
 10
-4.239235771714323
 20
38.33261153290739
 30
0.0
 11
-4.220726795722791
 21
38.77682695670443
 31
0.0
  0
LINE
  5
D5
330
1F
100
AcDbEntity
  8
0
100
AcDbLine
 10
-4.220726795722791
 20
38.77682695670443
 30
0.0
 11
-4.664942219519823
 21
38.75214832204904
 31
0.0
  0
LINE
  5
D6
330
1F
100
AcDbEntity
  8
0
100
AcDbLine
 10
-4.664942219519823
 20
38.75214832204904
 30
0.0
 11
-4.664942219519823
 21
39.02361330325835
 31
0.0
  0
LINE
  5
D7
330
1F
100
AcDbEntity
  8
0
100
AcDbLine
 10
-4.664942219519823
 20
39.02361330325835
 30
0.0
 11
-3.208902774851738
 21
39.02978296192219
 31
0.0
  0
LINE
  5
D8
330
1F
100
AcDbEntity
  8
0
100
AcDbLine
 10
-3.276769020154047
 20
38.80150559135981
 30
0.0
 11
-3.461858780069478
 21
38.77991178603634
 31
0.0
  0
LINE
  5
D9
330
1F
100
AcDbEntity
  8
0
100
AcDbLine
 10
-3.461858780069478
 20
38.77991178603634
 30
0.0
 11
-3.585251953346464
 21
38.71513037006595
 31
0.0
  0
LINE
  5
DA
330
1F
100
AcDbEntity
  8
0
100
AcDbLine
 10
-3.585251953346464
 20
38.71513037006595
 30
0.0
 11
-3.65774544264668
 21
38.61795824611036
 31
0.0
  0
LINE
  5
DB
330
1F
100
AcDbEntity
  8
0
100
AcDbLine
 10
-3.65774544264668
 20
38.61795824611036
 30
0.0
 11
-3.690136150631877
 21
38.49919231683128
 31
0.0
  0
LINE
  5
DC
330
1F
100
AcDbEntity
  8
0
100
AcDbLine
 10
-3.690136150631877
 20
38.49919231683128
 30
0.0
 11
-3.702475467959546
 21
38.06114655169807
 31
0.0
  0
LINE
  5
DD
330
1F
100
AcDbEntity
  8
0
100
AcDbLine
 10
-3.702475467959546
 20
38.06114655169807
 30
0.0
 11
-3.702475467959546
 21
35.43287196089889
 31
0.0
  0
LINE
  5
DE
330
1F
100
AcDbEntity
  8
0
100
AcDbLine
 10
-3.702475467959546
 20
35.43287196089889
 30
0.0
 11
-3.720984443951119
 21
34.95163858511875
 31
0.0
  0
LINE
  5
DF
330
1F
100
AcDbEntity
  8
0
100
AcDbLine
 10
-3.720984443951119
 20
34.95163858511875
 30
0.0
 11
-3.060830966919375
 21
34.93929926779104
 31
0.0
  0
LINE
  5
E0
330
1F
100
AcDbEntity
  8
0
100
AcDbLine
 10
-3.060830966919375
 20
34.93929926779104
 30
0.0
 11
-2.571885517809416
 21
35.0025382690955
 31
0.0
  0
LINE
  5
E1
330
1F
100
AcDbEntity
  8
0
100
AcDbLine
 10
-2.571885517809416
 20
35.0025382690955
 30
0.0
 11
-2.349392202244426
 21
35.08158702072605
 31
0.0
  0
LINE
  5
E2
330
1F
100
AcDbEntity
  8
0
100
AcDbLine
 10
-2.349392202244426
 20
35.08158702072605
 30
0.0
 11
-2.14155182600605
 21
35.19225527300882
 31
0.0
  0
LINE
  5
E3
330
1F
100
AcDbEntity
  8
0
100
AcDbLine
 10
-2.14155182600605
 20
35.19225527300882
 30
0.0
 11
-1.785254038168833
 21
35.49302613287139
 31
0.0
  0
LINE
  5
E4
330
1F
100
AcDbEntity
  8
0
100
AcDbLine
 10
-1.785254038168833
 20
35.49302613287139
 30
0.0
 11
-1.51841630095741
 21
35.88942670202363
 31
0.0
  0
LINE
  5
E5
330
1F
100
AcDbEntity
  8
0
100
AcDbLine
 10
-1.51841630095741
 20
35.88942670202363
 30
0.0
 11
-1.351835517033534
 21
36.35986317514201
 31
0.0
  0
LINE
  5
E6
330
1F
100
AcDbEntity
  8
0
100
AcDbLine
 10
-1.351835517033534
 20
36.35986317514201
 30
0.0
 11
-1.296308589058895
 21
36.88274174690312
 31
0.0
  0
LINE
  5
E7
330
1F
100
AcDbEntity
  8
0
100
AcDbLine
 10
-1.296308589058895
 20
36.88274174690312
 30
0.0
 11
-1.327156882378136
 21
37.30844819470865
 31
0.0
  0
LINE
  5
E8
330
1F
100
AcDbEntity
  8
0
100
AcDbLine
 10
-1.327156882378136
 20
37.30844819470865
 30
0.0
 11
-1.419701762335841
 21
37.68479737320335
 31
0.0
  0
LINE
  5
E9
330
1F
100
AcDbEntity
  8
0
100
AcDbLine
 10
-1.419701762335841
 20
37.68479737320335
 30
0.0
 11
-1.573943228932031
 21
38.0117892823873
 31
0.0
  0
LINE
  5
EA
330
1F
100
AcDbEntity
  8
0
100
AcDbLine
 10
-1.573943228932031
 20
38.0117892823873
 30
0.0
 11
-1.789881282166721
 21
38.28942392226045
 31
0.0
  0
LINE
  5
EB
330
1F
100
AcDbEntity
  8
0
100
AcDbLine
 10
-1.789881282166721
 20
38.28942392226045
 30
0.0
 11
-2.067901525706371
 21
38.51345965249142
 31
0.0
  0
LINE
  5
EC
330
1F
100
AcDbEntity
  8
0
100
AcDbLine
 10
-2.067901525706371
 20
38.51345965249142
 30
0.0
 11
-2.408389563217472
 21
38.67348517408497
 31
0.0
  0
LINE
  5
ED
330
1F
100
AcDbEntity
  8
0
100
AcDbLine
 10
-2.408389563217472
 20
38.67348517408497
 30
0.0
 11
-2.811345394700024
 21
38.76950048704111
 31
0.0
  0
LINE
  5
EE
330
1F
100
AcDbEntity
  8
0
100
AcDbLine
 10
-2.811345394700024
 20
38.76950048704111
 30
0.0
 11
-3.276769020154047
 21
38.80150559135981
 31
0.0
  0
LINE
  5
EF
330
1F
100
AcDbEntity
  8
0
100
AcDbLine
 10
-17.08232390995432
 20
-17.73152627361774
 30
0.0
 11
2.145894949493057
 21
-8.918592629704312
 31
0.0
  0
LINE
  5
F0
330
1F
100
AcDbEntity
  8
0
100
AcDbLine
 10
-11.81522286318413
 20
-6.55432478873071
 30
0.0
 11
-11.96846833791741
 21
-6.574757518695146
 31
0.0
  0
LINE
  5
F1
330
1F
100
AcDbEntity
  8
0
100
AcDbLine
 10
-11.96846833791741
 20
-6.574757518695146
 30
0.0
 11
-12.07792939129833
 21
-6.624379862894497
 31
0.0
  0
LINE
  5
F2
330
1F
100
AcDbEntity
  8
0
100
AcDbLine
 10
-12.07792939129833
 20
-6.624379862894497
 30
0.0
 11
-12.14506550403862
 21
-6.694434937058283
 31
0.0
  0
LINE
  5
F3
330
1F
100
AcDbEntity
  8
0
100
AcDbLine
 10
-12.14506550403862
 20
-6.694434937058283
 30
0.0
 11
-12.18301200254401
 21
-6.787841702609998
 31
0.0
  0
LINE
  5
F4
330
1F
100
AcDbEntity
  8
0
100
AcDbLine
 10
-12.18301200254401
 20
-6.787841702609998
 30
0.0
 11
-12.20636369393194
 21
-7.068061999265145
 31
0.0
  0
LINE
  5
F5
330
1F
100
AcDbEntity
  8
0
100
AcDbLine
 10
-12.20636369393194
 20
-7.068061999265145
 30
0.0
 11
-12.20636369393194
 21
-7.272389298909522
 31
0.0
  0
LINE
  5
F6
330
1F
100
AcDbEntity
  8
0
100
AcDbLine
 10
-12.20636369393194
 20
-7.272389298909522
 30
0.0
 11
-12.2180395396259
 21
-10.54162609321956
 31
0.0
  0
LINE
  5
F7
330
1F
100
AcDbEntity
  8
0
100
AcDbLine
 10
-12.2180395396259
 20
-10.54162609321956
 30
0.0
 11
-12.49825983628105
 21
-10.54162609321956
 31
0.0
  0
LINE
  5
F8
330
1F
100
AcDbEntity
  8
0
100
AcDbLine
 10
-12.49825983628105
 20
-10.54162609321956
 30
0.0
 11
-15.03191835187133
 21
-7.138117073428932
 31
0.0
  0
LINE
  5
F9
330
1F
100
AcDbEntity
  8
0
100
AcDbLine
 10
-15.03191835187133
 20
-7.138117073428932
 30
0.0
 11
-15.02024250617736
 21
-9.636748051937317
 31
0.0
  0
LINE
  5
FA
330
1F
100
AcDbEntity
  8
0
100
AcDbLine
 10
-15.02024250617736
 20
-9.636748051937317
 30
0.0
 11
-15.03191835187133
 21
-10.21470241378856
 31
0.0
  0
LINE
  5
FB
330
1F
100
AcDbEntity
  8
0
100
AcDbLine
 10
-15.03191835187133
 20
-10.21470241378856
 30
0.0
 11
-14.61158790688861
 21
-10.19135072240063
 31
0.0
  0
LINE
  5
FC
330
1F
100
AcDbEntity
  8
0
100
AcDbLine
 10
-14.61158790688861
 20
-10.19135072240063
 30
0.0
 11
-14.61158790688861
 21
-10.44821932766785
 31
0.0
  0
LINE
  5
FD
330
1F
100
AcDbEntity
  8
0
100
AcDbLine
 10
-14.61158790688861
 20
-10.44821932766785
 30
0.0
 11
-15.67992778788635
 21
-10.44821932766785
 31
0.0
  0
LINE
  5
FE
330
1F
100
AcDbEntity
  8
0
100
AcDbLine
 10
-15.67992778788635
 20
-10.44821932766785
 30
0.0
 11
-15.67992778788635
 21
-10.25556787371743
 31
0.0
  0
LINE
  5
FF
330
1F
100
AcDbEntity
  8
0
100
AcDbLine
 10
-15.67992778788635
 20
-10.25556787371743
 30
0.0
 11
-15.4858168532242
 21
-10.22199981734729
 31
0.0
  0
LINE
  5
100
330
1F
100
AcDbEntity
  8
0
100
AcDbLine
 10
-15.4858168532242
 20
-10.22199981734729
 30
0.0
 11
-15.3705178769963
 21
-10.12129564823684
 31
0.0
  0
LINE
  5
101
330
1F
100
AcDbEntity
  8
0
100
AcDbLine
 10
-15.3705178769963
 20
-10.12129564823684
 30
0.0
 11
-15.31359812923822
 21
-9.972428615638796
 31
0.0
  0
LINE
  5
102
330
1F
100
AcDbEntity
  8
0
100
AcDbLine
 10
-15.31359812923822
 20
-9.972428615638796
 30
0.0
 11
-15.29462487998553
 21
-9.794371968805839
 31
0.0
  0
LINE
  5
103
330
1F
100
AcDbEntity
  8
0
100
AcDbLine
 10
-15.29462487998553
 20
-9.794371968805839
 30
0.0
 11
-15.28878695713855
 21
-6.595190248659586
 31
0.0
  0
LINE
  5
104
330
1F
100
AcDbEntity
  8
0
100
AcDbLine
 10
-15.28878695713855
 20
-6.595190248659586
 30
0.0
 11
-15.67992778788635
 21
-6.618541940047515
 31
0.0
  0
LINE
  5
105
330
1F
100
AcDbEntity
  8
0
100
AcDbLine
 10
-15.67992778788635
 20
-6.618541940047515
 30
0.0
 11
-15.67992778788635
 21
-6.361673334780297
 31
0.0
  0
LINE
  5
106
330
1F
100
AcDbEntity
  8
0
100
AcDbLine
 10
-15.67992778788635
 20
-6.361673334780297
 30
0.0
 11
-14.98521496909547
 21
-6.361673334780297
 31
0.0
  0
LINE
  5
107
330
1F
100
AcDbEntity
  8
0
100
AcDbLine
 10
-14.98521496909547
 20
-6.361673334780297
 30
0.0
 11
-12.49825983628105
 21
-9.689289357560158
 31
0.0
  0
LINE
  5
108
330
1F
100
AcDbEntity
  8
0
100
AcDbLine
 10
-12.49825983628105
 20
-9.689289357560158
 30
0.0
 11
-12.48658399058708
 21
-7.015520693642306
 31
0.0
  0
LINE
  5
109
330
1F
100
AcDbEntity
  8
0
100
AcDbLine
 10
-12.48658399058708
 20
-7.015520693642306
 30
0.0
 11
-12.46907022204614
 21
-6.595190248659586
 31
0.0
  0
LINE
  5
10A
330
1F
100
AcDbEntity
  8
0
100
AcDbLine
 10
-12.46907022204614
 20
-6.595190248659586
 30
0.0
 11
-12.88940066702886
 21
-6.618541940047515
 31
0.0
  0
LINE
  5
10B
330
1F
100
AcDbEntity
  8
0
100
AcDbLine
 10
-12.88940066702886
 20
-6.618541940047515
 30
0.0
 11
-12.88940066702886
 21
-6.361673334780297
 31
0.0
  0
LINE
  5
10C
330
1F
100
AcDbEntity
  8
0
100
AcDbLine
 10
-12.88940066702886
 20
-6.361673334780297
 30
0.0
 11
-11.81522286318413
 21
-6.361673334780297
 31
0.0
  0
LINE
  5
10D
330
1F
100
AcDbEntity
  8
0
100
AcDbLine
 10
-11.81522286318413
 20
-6.361673334780297
 30
0.0
 11
-11.81522286318413
 21
-6.55432478873071
 31
0.0
  0
LINE
  5
10E
330
1F
100
AcDbEntity
  8
0
100
AcDbLine
 10
-9.264050579052903
 20
-6.268266569228581
 30
0.0
 11
-8.9411404715792
 21
-6.288334429015083
 31
0.0
  0
LINE
  5
10F
330
1F
100
AcDbEntity
  8
0
100
AcDbLine
 10
-8.9411404715792
 20
-6.288334429015083
 30
0.0
 11
-8.643771276561042
 21
-6.348538008374587
 31
0.0
  0
LINE
  5
110
330
1F
100
AcDbEntity
  8
0
100
AcDbLine
 10
-8.643771276561042
 20
-6.348538008374587
 30
0.0
 11
-8.371942993998433
 21
-6.448877307307094
 31
0.0
  0
LINE
  5
111
330
1F
100
AcDbEntity
  8
0
100
AcDbLine
 10
-8.371942993998433
 20
-6.448877307307094
 30
0.0
 11
-8.12565562389137
 21
-6.589352325812603
 31
0.0
  0
LINE
  5
112
330
1F
100
AcDbEntity
  8
0
100
AcDbLine
 10
-8.12565562389137
 20
-6.589352325812603
 30
0.0
 11
-7.904179425883983
 21
-6.757922348019214
 31
0.0
  0
LINE
  5
113
330
1F
100
AcDbEntity
  8
0
100
AcDbLine
 10
-7.904179425883983
 20
-6.757922348019214
 30
0.0
 11
-7.71262258246738
 21
-6.948384580902009
 31
0.0
  0
LINE
  5
114
330
1F
100
AcDbEntity
  8
0
100
AcDbLine
 10
-7.71262258246738
 20
-6.948384580902009
 30
0.0
 11
-7.550985093641559
 21
-7.160739024460987
 31
0.0
  0
LINE
  5
115
330
1F
100
AcDbEntity
  8
0
100
AcDbLine
 10
-7.550985093641559
 20
-7.160739024460987
 30
0.0
 11
-7.419266959406523
 21
-7.394985678696148
 31
0.0
  0
LINE
  5
116
330
1F
100
AcDbEntity
  8
0
100
AcDbLine
 10
-7.419266959406523
 20
-7.394985678696148
 30
0.0
 11
-7.244129273997056
 21
-7.892668601401382
 31
0.0
  0
LINE
  5
117
330
1F
100
AcDbEntity
  8
0
100
AcDbLine
 10
-7.244129273997056
 20
-7.892668601401382
 30
0.0
 11
-7.185750045527235
 21
-8.404946331224071
 31
0.0
  0
LINE
  5
118
330
1F
100
AcDbEntity
  8
0
100
AcDbLine
 10
-7.185750045527235
 20
-8.404946331224071
 30
0.0
 11
-7.244129273997056
 21
-8.91430509962327
 31
0.0
  0
LINE
  5
119
330
1F
100
AcDbEntity
  8
0
100
AcDbLine
 10
-7.244129273997056
 20
-8.91430509962327
 30
0.0
 11
-7.419266959406523
 21
-9.414906983751994
 31
0.0
  0
LINE
  5
11A
330
1F
100
AcDbEntity
  8
0
100
AcDbLine
 10
-7.419266959406523
 20
-9.414906983751994
 30
0.0
 11
-7.547701262040131
 21
-9.649518508165091
 31
0.0
  0
LINE
  5
11B
330
1F
100
AcDbEntity
  8
0
100
AcDbLine
 10
-7.547701262040131
 20
-9.649518508165091
 30
0.0
 11
-7.705325178908652
 21
-9.86296756225788
 31
0.0
  0
LINE
  5
11C
330
1F
100
AcDbEntity
  8
0
100
AcDbLine
 10
-7.705325178908652
 20
-9.86296756225788
 30
0.0
 11
-7.892138710012083
 21
-10.05525414603036
 31
0.0
  0
LINE
  5
11D
330
1F
100
AcDbEntity
  8
0
100
AcDbLine
 10
-7.892138710012083
 20
-10.05525414603036
 30
0.0
 11
-8.108141855350425
 21
-10.22637825948252
 31
0.0
  0
LINE
  5
11E
330
1F
100
AcDbEntity
  8
0
100
AcDbLine
 10
-8.108141855350425
 20
-10.22637825948252
 30
0.0
 11
-8.34822643243257
 21
-10.36429918674248
 31
0.0
  0
LINE
  5
11F
330
1F
100
AcDbEntity
  8
0
100
AcDbLine
 10
-8.34822643243257
 20
-10.36429918674248
 30
0.0
 11
-8.613122181614386
 21
-10.4628141347853
 31
0.0
  0
LINE
  5
120
330
1F
100
AcDbEntity
  8
0
100
AcDbLine
 10
-8.613122181614386
 20
-10.4628141347853
 30
0.0
 11
-8.902829102895877
 21
-10.521923103611
 31
0.0
  0
LINE
  5
121
330
1F
100
AcDbEntity
  8
0
100
AcDbLine
 10
-8.902829102895877
 20
-10.521923103611
 30
0.0
 11
-9.217347196277046
 21
-10.54162609321956
 31
0.0
  0
LINE
  5
122
330
1F
100
AcDbEntity
  8
0
100
AcDbLine
 10
-9.217347196277046
 20
-10.54162609321956
 30
0.0
 11
-9.553027759978523
 21
-10.52228797378893
 31
0.0
  0
LINE
  5
123
330
1F
100
AcDbEntity
  8
0
100
AcDbLine
 10
-9.553027759978523
 20
-10.52228797378893
 30
0.0
 11
-9.859518709445089
 21
-10.46427361549705
 31
0.0
  0
LINE
  5
124
330
1F
100
AcDbEntity
  8
0
100
AcDbLine
 10
-9.859518709445089
 20
-10.46427361549705
 30
0.0
 11
-10.13682004467675
 21
-10.3675830183439
 31
0.0
  0
LINE
  5
125
330
1F
100
AcDbEntity
  8
0
100
AcDbLine
 10
-10.13682004467675
 20
-10.3675830183439
 30
0.0
 11
-10.38493176567349
 21
-10.2322161823295
 31
0.0
  0
LINE
  5
126
330
1F
100
AcDbEntity
  8
0
100
AcDbLine
 10
-10.38493176567349
 20
-10.2322161823295
 30
0.0
 11
-10.60312413207945
 21
-10.06656512154638
 31
0.0
  0
LINE
  5
127
330
1F
100
AcDbEntity
  8
0
100
AcDbLine
 10
-10.60312413207945
 20
-10.06656512154638
 30
0.0
 11
-10.79066740353875
 21
-9.87902185008708
 31
0.0
  0
LINE
  5
128
330
1F
100
AcDbEntity
  8
0
100
AcDbLine
 10
-10.79066740353875
 20
-9.87902185008708
 30
0.0
 11
-10.9475615800514
 21
-9.669586367951593
 31
0.0
  0
LINE
  5
129
330
1F
100
AcDbEntity
  8
0
100
AcDbLine
 10
-10.9475615800514
 20
-9.669586367951593
 30
0.0
 11
-11.07380666161739
 21
-9.438258675139922
 31
0.0
  0
LINE
  5
12A
330
1F
100
AcDbEntity
  8
0
100
AcDbLine
 10
-11.07380666161739
 20
-9.438258675139922
 30
0.0
 11
-11.24018746275638
 21
-8.934737829587707
 31
0.0
  0
LINE
  5
12B
330
1F
100
AcDbEntity
  8
0
100
AcDbLine
 10
-11.24018746275638
 20
-8.934737829587707
 30
0.0
 11
-11.29564772980271
 21
-8.404946331224071
 31
0.0
  0
LINE
  5
12C
330
1F
100
AcDbEntity
  8
0
100
AcDbLine
 10
-11.29564772980271
 20
-8.404946331224071
 30
0.0
 11
-11.23872798204464
 21
-7.892668601401382
 31
0.0
  0
LINE
  5
12D
330
1F
100
AcDbEntity
  8
0
100
AcDbLine
 10
-11.23872798204464
 20
-7.892668601401382
 30
0.0
 11
-11.06796873877041
 21
-7.394985678696148
 31
0.0
  0
LINE
  5
12E
330
1F
100
AcDbEntity
  8
0
100
AcDbLine
 10
-11.06796873877041
 20
-7.394985678696148
 30
0.0
 11
-10.93734521506918
 21
-7.160739024460987
 31
0.0
  0
LINE
  5
12F
330
1F
100
AcDbEntity
  8
0
100
AcDbLine
 10
-10.93734521506918
 20
-7.160739024460987
 30
0.0
 11
-10.77899155784479
 21
-6.948384580902009
 31
0.0
  0
LINE
  5
130
330
1F
100
AcDbEntity
  8
0
100
AcDbLine
 10
-10.77899155784479
 20
-6.948384580902009
 30
0.0
 11
-10.59290776709723
 21
-6.757922348019214
 31
0.0
  0
LINE
  5
131
330
1F
100
AcDbEntity
  8
0
100
AcDbLine
 10
-10.59290776709723
 20
-6.757922348019214
 30
0.0
 11
-10.3790938428265
 21
-6.589352325812603
 31
0.0
  0
LINE
  5
132
330
1F
100
AcDbEntity
  8
0
100
AcDbLine
 10
-10.3790938428265
 20
-6.589352325812603
 30
0.0
 11
-10.13645517449881
 21
-6.448877307307094
 31
0.0
  0
LINE
  5
133
330
1F
100
AcDbEntity
  8
0
100
AcDbLine
 10
-10.13645517449881
 20
-6.448877307307094
 30
0.0
 11
-9.869735074427307
 21
-6.348538008374587
 31
0.0
  0
LINE
  5
134
330
1F
100
AcDbEntity
  8
0
100
AcDbLine
 10
-9.869735074427307
 20
-6.348538008374587
 30
0.0
 11
-9.578933542612004
 21
-6.288334429015083
 31
0.0
  0
LINE
  5
135
330
1F
100
AcDbEntity
  8
0
100
AcDbLine
 10
-9.578933542612004
 20
-6.288334429015083
 30
0.0
 11
-9.264050579052903
 21
-6.268266569228581
 31
0.0
  0
LINE
  5
136
330
1F
100
AcDbEntity
  8
0
100
AcDbLine
 10
-9.28156434759385
 20
-6.501783483107869
 30
0.0
 11
-9.501216194711555
 21
-6.518202641115008
 31
0.0
  0
LINE
  5
137
330
1F
100
AcDbEntity
  8
0
100
AcDbLine
 10
-9.501216194711555
 20
-6.518202641115008
 30
0.0
 11
-9.704813754000059
 21
-6.56746011513642
 31
0.0
  0
LINE
  5
138
330
1F
100
AcDbEntity
  8
0
100
AcDbLine
 10
-9.704813754000059
 20
-6.56746011513642
 30
0.0
 11
-9.892357025459363
 21
-6.649555905172106
 31
0.0
  0
LINE
  5
139
330
1F
100
AcDbEntity
  8
0
100
AcDbLine
 10
-9.892357025459363
 20
-6.649555905172106
 30
0.0
 11
-10.06384600908947
 21
-6.76449001122207
 31
0.0
  0
LINE
  5
13A
330
1F
100
AcDbEntity
  8
0
100
AcDbLine
 10
-10.06384600908947
 20
-6.76449001122207
 30
0.0
 11
-10.35136370930334
 21
-7.060764595706416
 31
0.0
  0
LINE
  5
13B
330
1F
100
AcDbEntity
  8
0
100
AcDbLine
 10
-10.35136370930334
 20
-7.060764595706416
 30
0.0
 11
-10.56006945108295
 21
-7.435851138625024
 31
0.0
  0
LINE
  5
13C
330
1F
100
AcDbEntity
  8
0
100
AcDbLine
 10
-10.56006945108295
 20
-7.435851138625024
 30
0.0
 11
-10.68266583086958
 21
-7.859100545031235
 31
0.0
  0
LINE
  5
13D
330
1F
100
AcDbEntity
  8
0
100
AcDbLine
 10
-10.68266583086958
 20
-7.859100545031235
 30
0.0
 11
-10.72353129079846
 21
-8.299863719978392
 31
0.0
  0
LINE
  5
13E
330
1F
100
AcDbEntity
  8
0
100
AcDbLine
 10
-10.72353129079846
 20
-8.299863719978392
 30
0.0
 11
-10.68120635015783
 21
-8.762519105601733
 31
0.0
  0
LINE
  5
13F
330
1F
100
AcDbEntity
  8
0
100
AcDbLine
 10
-10.68120635015783
 20
-8.762519105601733
 30
0.0
 11
-10.55423152823597
 21
-9.228093452648563
 31
0.0
  0
LINE
  5
140
330
1F
100
AcDbEntity
  8
0
100
AcDbLine
 10
-10.55423152823597
 20
-9.228093452648563
 30
0.0
 11
-10.34114734432112
 21
-9.651342859054774
 31
0.0
  0
LINE
  5
141
330
1F
100
AcDbEntity
  8
0
100
AcDbLine
 10
-10.34114734432112
 20
-9.651342859054774
 30
0.0
 11
-10.04049431770154
 21
-9.998699268450217
 31
0.0
  0
LINE
  5
142
330
1F
100
AcDbEntity
  8
0
100
AcDbLine
 10
-10.04049431770154
 20
-9.998699268450217
 30
0.0
 11
-9.859153839267153
 21
-10.13151201321906
 31
0.0
  0
LINE
  5
143
330
1F
100
AcDbEntity
  8
0
100
AcDbLine
 10
-9.859153839267153
 20
-10.13151201321906
 30
0.0
 11
-9.659569851935947
 21
-10.22637825948252
 31
0.0
  0
LINE
  5
144
330
1F
100
AcDbEntity
  8
0
100
AcDbLine
 10
-9.659569851935947
 20
-10.22637825948252
 30
0.0
 11
-9.441742355707923
 21
-10.2832980072406
 31
0.0
  0
LINE
  5
145
330
1F
100
AcDbEntity
  8
0
100
AcDbLine
 10
-9.441742355707923
 20
-10.2832980072406
 30
0.0
 11
-9.20567135058308
 21
-10.30227125649329
 31
0.0
  0
LINE
  5
146
330
1F
100
AcDbEntity
  8
0
100
AcDbLine
 10
-9.20567135058308
 20
-10.30227125649329
 30
0.0
 11
-8.986384373643311
 21
-10.28621696866409
 31
0.0
  0
LINE
  5
147
330
1F
100
AcDbEntity
  8
0
100
AcDbLine
 10
-8.986384373643311
 20
-10.28621696866409
 30
0.0
 11
-8.783881424888616
 21
-10.23805410517649
 31
0.0
  0
LINE
  5
148
330
1F
100
AcDbEntity
  8
0
100
AcDbLine
 10
-8.783881424888616
 20
-10.23805410517649
 30
0.0
 11
-8.598162504318994
 21
-10.15778266603048
 31
0.0
  0
LINE
  5
149
330
1F
100
AcDbEntity
  8
0
100
AcDbLine
 10
-8.598162504318994
 20
-10.15778266603048
 30
0.0
 11
-8.429227611934445
 21
-10.04540265122607
 31
0.0
  0
LINE
  5
14A
330
1F
100
AcDbEntity
  8
0
100
AcDbLine
 10
-8.429227611934445
 20
-10.04540265122607
 30
0.0
 11
-8.143169392432316
 21
-9.746209105318236
 31
0.0
  0
LINE
  5
14B
330
1F
100
AcDbEntity
  8
0
100
AcDbLine
 10
-8.143169392432316
 20
-9.746209105318236
 30
0.0
 11
-7.938842092787941
 21
-9.37404152382312
 31
0.0
  0
LINE
  5
14C
330
1F
100
AcDbEntity
  8
0
100
AcDbLine
 10
-7.938842092787941
 20
-9.37404152382312
 30
0.0
 11
-7.811867270866076
 21
-8.955170559552146
 31
0.0
  0
LINE
  5
14D
330
1F
100
AcDbEntity
  8
0
100
AcDbLine
 10
-7.811867270866076
 20
-8.955170559552146
 30
0.0
 11
-7.769542330225456
 21
-8.515866865316735
 31
0.0
  0
LINE
  5
14E
330
1F
100
AcDbEntity
  8
0
100
AcDbLine
 10
-7.769542330225456
 20
-8.515866865316735
 30
0.0
 11
-7.81478623228957
 21
-8.028400307593719
 31
0.0
  0
LINE
  5
14F
330
1F
100
AcDbEntity
  8
0
100
AcDbLine
 10
-7.81478623228957
 20
-8.028400307593719
 30
0.0
 11
-7.950517938481906
 21
-7.558447518411652
 31
0.0
  0
LINE
  5
150
330
1F
100
AcDbEntity
  8
0
100
AcDbLine
 10
-7.950517938481906
 20
-7.558447518411652
 30
0.0
 11
-8.172359006667227
 21
-7.13519811200544
 31
0.0
  0
LINE
  5
151
330
1F
100
AcDbEntity
  8
0
100
AcDbLine
 10
-8.172359006667227
 20
-7.13519811200544
 30
0.0
 11
-8.475930994710303
 21
-6.799517548303962
 31
0.0
  0
LINE
  5
152
330
1F
100
AcDbEntity
  8
0
100
AcDbLine
 10
-8.475930994710303
 20
-6.799517548303962
 30
0.0
 11
-8.655447122255005
 21
-6.669258894780672
 31
0.0
  0
LINE
  5
153
330
1F
100
AcDbEntity
  8
0
100
AcDbLine
 10
-8.655447122255005
 20
-6.669258894780672
 30
0.0
 11
-8.849558056917166
 21
-6.576216999406893
 31
0.0
  0
LINE
  5
154
330
1F
100
AcDbEntity
  8
0
100
AcDbLine
 10
-8.849558056917166
 20
-6.576216999406893
 30
0.0
 11
-9.05826379869678
 21
-6.520391862182625
 31
0.0
  0
LINE
  5
155
330
1F
100
AcDbEntity
  8
0
100
AcDbLine
 10
-9.05826379869678
 20
-6.520391862182625
 30
0.0
 11
-9.28156434759385
 21
-6.501783483107869
 31
0.0
  0
LINE
  5
156
330
1F
100
AcDbEntity
  8
0
100
AcDbLine
 10
-3.326883043671993
 20
-7.593475055493544
 30
0.0
 11
-3.548724111857317
 21
-7.593475055493544
 31
0.0
  0
LINE
  5
157
330
1F
100
AcDbEntity
  8
0
100
AcDbLine
 10
-3.548724111857317
 20
-7.593475055493544
 30
0.0
 11
-3.570616322533501
 21
-7.263632414639049
 31
0.0
  0
LINE
  5
158
330
1F
100
AcDbEntity
  8
0
100
AcDbLine
 10
-3.570616322533501
 20
-7.263632414639049
 30
0.0
 11
-3.624617108868083
 21
-7.009682770795322
 31
0.0
  0
LINE
  5
159
330
1F
100
AcDbEntity
  8
0
100
AcDbLine
 10
-3.624617108868083
 20
-7.009682770795322
 30
0.0
 11
-3.713645432284564
 21
-6.817031316844909
 31
0.0
  0
LINE
  5
15A
330
1F
100
AcDbEntity
  8
0
100
AcDbLine
 10
-3.713645432284564
 20
-6.817031316844909
 30
0.0
 11
-3.852296099900391
 21
-6.682759091364319
 31
0.0
  0
LINE
  5
15B
330
1F
100
AcDbEntity
  8
0
100
AcDbLine
 10
-3.852296099900391
 20
-6.682759091364319
 30
0.0
 11
-4.044947553850804
 21
-6.599568690794821
 31
0.0
  0
LINE
  5
15C
330
1F
100
AcDbEntity
  8
0
100
AcDbLine
 10
-4.044947553850804
 20
-6.599568690794821
 30
0.0
 11
-4.307654081965004
 21
-6.571838557271656
 31
0.0
  0
LINE
  5
15D
330
1F
100
AcDbEntity
  8
0
100
AcDbLine
 10
-4.307654081965004
 20
-6.571838557271656
 30
0.0
 11
-4.803877523958491
 21
-6.571838557271656
 31
0.0
  0
LINE
  5
15E
330
1F
100
AcDbEntity
  8
0
100
AcDbLine
 10
-4.803877523958491
 20
-6.571838557271656
 30
0.0
 11
-4.809715446805473
 21
-9.753506508876962
 31
0.0
  0
LINE
  5
15F
330
1F
100
AcDbEntity
  8
0
100
AcDbLine
 10
-4.809715446805473
 20
-9.753506508876962
 30
0.0
 11
-4.82722921534642
 21
-10.21470241378856
 31
0.0
  0
LINE
  5
160
330
1F
100
AcDbEntity
  8
0
100
AcDbLine
 10
-4.82722921534642
 20
-10.21470241378856
 30
0.0
 11
-4.342681619046897
 21
-10.19135072240063
 31
0.0
  0
LINE
  5
161
330
1F
100
AcDbEntity
  8
0
100
AcDbLine
 10
-4.342681619046897
 20
-10.19135072240063
 30
0.0
 11
-4.342681619046897
 21
-10.44821932766785
 31
0.0
  0
LINE
  5
162
330
1F
100
AcDbEntity
  8
0
100
AcDbLine
 10
-4.342681619046897
 20
-10.44821932766785
 30
0.0
 11
-5.714593488087717
 21
-10.44821932766785
 31
0.0
  0
LINE
  5
163
330
1F
100
AcDbEntity
  8
0
100
AcDbLine
 10
-5.714593488087717
 20
-10.44821932766785
 30
0.0
 11
-5.714593488087717
 21
-10.25556787371743
 31
0.0
  0
LINE
  5
164
330
1F
100
AcDbEntity
  8
0
100
AcDbLine
 10
-5.714593488087717
 20
-10.25556787371743
 30
0.0
 11
-5.508806707731593
 21
-10.21470241378856
 31
0.0
  0
LINE
  5
165
330
1F
100
AcDbEntity
  8
0
100
AcDbLine
 10
-5.508806707731593
 20
-10.21470241378856
 30
0.0
 11
-5.393507731503695
 21
-10.11545772538986
 31
0.0
  0
LINE
  5
166
330
1F
100
AcDbEntity
  8
0
100
AcDbLine
 10
-5.393507731503695
 20
-10.11545772538986
 30
0.0
 11
-5.336587983745618
 21
-9.951995885674357
 31
0.0
  0
LINE
  5
167
330
1F
100
AcDbEntity
  8
0
100
AcDbLine
 10
-5.336587983745618
 20
-9.951995885674357
 30
0.0
 11
-5.317614734492926
 21
-9.718478971795069
 31
0.0
  0
LINE
  5
168
330
1F
100
AcDbEntity
  8
0
100
AcDbLine
 10
-5.317614734492926
 20
-9.718478971795069
 30
0.0
 11
-5.317614734492926
 21
-9.53750336353862
 31
0.0
  0
LINE
  5
169
330
1F
100
AcDbEntity
  8
0
100
AcDbLine
 10
-5.317614734492926
 20
-9.53750336353862
 30
0.0
 11
-5.311776811645944
 21
-6.577676480118638
 31
0.0
  0
LINE
  5
16A
330
1F
100
AcDbEntity
  8
0
100
AcDbLine
 10
-5.311776811645944
 20
-6.577676480118638
 30
0.0
 11
-5.913082864885112
 21
-6.583514402965622
 31
0.0
  0
LINE
  5
16B
330
1F
100
AcDbEntity
  8
0
100
AcDbLine
 10
-5.913082864885112
 20
-6.583514402965622
 30
0.0
 11
-6.081288016913788
 21
-6.59883895043895
 31
0.0
  0
LINE
  5
16C
330
1F
100
AcDbEntity
  8
0
100
AcDbLine
 10
-6.081288016913788
 20
-6.59883895043895
 30
0.0
 11
-6.223952256486914
 21
-6.644812592858933
 31
0.0
  0
LINE
  5
16D
330
1F
100
AcDbEntity
  8
0
100
AcDbLine
 10
-6.223952256486914
 20
-6.644812592858933
 30
0.0
 11
-6.341075583604495
 21
-6.721435330225575
 31
0.0
  0
LINE
  5
16E
330
1F
100
AcDbEntity
  8
0
100
AcDbLine
 10
-6.341075583604495
 20
-6.721435330225575
 30
0.0
 11
-6.43265799826653
 21
-6.828707162538874
 31
0.0
  0
LINE
  5
16F
330
1F
100
AcDbEntity
  8
0
100
AcDbLine
 10
-6.43265799826653
 20
-6.828707162538874
 30
0.0
 11
-6.546497493782683
 21
-7.139576554140678
 31
0.0
  0
LINE
  5
170
330
1F
100
AcDbEntity
  8
0
100
AcDbLine
 10
-6.546497493782683
 20
-7.139576554140678
 30
0.0
 11
-6.584443992288068
 21
-7.593475055493544
 31
0.0
  0
LINE
  5
171
330
1F
100
AcDbEntity
  8
0
100
AcDbLine
 10
-6.584443992288068
 20
-7.593475055493544
 30
0.0
 11
-6.800447137626408
 21
-7.593475055493544
 31
0.0
  0
LINE
  5
172
330
1F
100
AcDbEntity
  8
0
100
AcDbLine
 10
-6.800447137626408
 20
-7.593475055493544
 30
0.0
 11
-6.765419600544515
 21
-6.361673334780297
 31
0.0
  0
LINE
  5
173
330
1F
100
AcDbEntity
  8
0
100
AcDbLine
 10
-6.765419600544515
 20
-6.361673334780297
 30
0.0
 11
-3.361910580753885
 21
-6.361673334780297
 31
0.0
  0
LINE
  5
174
330
1F
100
AcDbEntity
  8
0
100
AcDbLine
 10
-3.361910580753885
 20
-6.361673334780297
 30
0.0
 11
-3.326883043671993
 21
-7.593475055493544
 31
0.0
  0
LINE
  5
175
330
1F
100
AcDbEntity
  8
0
100
AcDbLine
 10
8.312149237884077
 20
-8.09184450740406
 30
0.0
 11
10.46214923788408
 21
-8.09184450740406
 31
0.0
  0
LINE
  5
176
330
1F
100
AcDbEntity
  8
0
100
AcDbLine
 10
8.212149237884077
 20
-8.09184450740406
 30
0.0
 11
8.28881612873368
 21
-7.509501655923388
 31
0.0
  0
LINE
  5
177
330
1F
100
AcDbEntity
  8
0
100
AcDbLine
 10
8.28881612873368
 20
-7.509501655923388
 30
0.0
 11
8.513592079369097
 21
-6.966844507404057
 31
0.0
  0
LINE
  5
178
330
1F
100
AcDbEntity
  8
0
100
AcDbLine
 10
8.513592079369097
 20
-6.966844507404057
 30
0.0
 11
8.871158980214336
 21
-6.500854249734325
 31
0.0
  0
LINE
  5
179
330
1F
100
AcDbEntity
  8
0
100
AcDbLine
 10
8.871158980214336
 20
-6.500854249734325
 30
0.0
 11
9.337149237884068
 21
-6.143287348889063
 31
0.0
  0
LINE
  5
17A
330
1F
100
AcDbEntity
  8
0
100
AcDbLine
 10
9.337149237884068
 20
-6.143287348889063
 30
0.0
 11
9.879806386403404
 21
-5.918511398253646
 31
0.0
  0
LINE
  5
17B
330
1F
100
AcDbEntity
  8
0
100
AcDbLine
 10
9.879806386403404
 20
-5.918511398253646
 30
0.0
 11
10.46214923788408
 21
-5.841844507404054
 31
0.0
  0
LINE
  5
17C
330
1F
100
AcDbEntity
  8
0
100
AcDbLine
 10
10.46214923788408
 20
-5.841844507404054
 30
0.0
 11
11.04449208936476
 21
-5.918511398253646
 31
0.0
  0
LINE
  5
17D
330
1F
100
AcDbEntity
  8
0
100
AcDbLine
 10
11.04449208936476
 20
-5.918511398253646
 30
0.0
 11
11.58714923788408
 21
-6.143287348889063
 31
0.0
  0
LINE
  5
17E
330
1F
100
AcDbEntity
  8
0
100
AcDbLine
 10
11.58714923788408
 20
-6.143287348889063
 30
0.0
 11
12.05313949555383
 21
-6.500854249734325
 31
0.0
  0
LINE
  5
17F
330
1F
100
AcDbEntity
  8
0
100
AcDbLine
 10
12.05313949555383
 20
-6.500854249734325
 30
0.0
 11
12.41070639639907
 21
-6.966844507404057
 31
0.0
  0
LINE
  5
180
330
1F
100
AcDbEntity
  8
0
100
AcDbLine
 10
12.41070639639907
 20
-6.966844507404057
 30
0.0
 11
12.63548234703449
 21
-7.509501655923388
 31
0.0
  0
LINE
  5
181
330
1F
100
AcDbEntity
  8
0
100
AcDbLine
 10
12.63548234703449
 20
-7.509501655923388
 30
0.0
 11
12.71214923788409
 21
-8.09184450740406
 31
0.0
  0
LINE
  5
182
330
1F
100
AcDbEntity
  8
0
100
AcDbLine
 10
12.71214923788409
 20
-8.09184450740406
 30
0.0
 11
12.63548234703449
 21
-8.674187358884735
 31
0.0
  0
LINE
  5
183
330
1F
100
AcDbEntity
  8
0
100
AcDbLine
 10
12.63548234703449
 20
-8.674187358884735
 30
0.0
 11
12.41070639639907
 21
-9.216844507404065
 31
0.0
  0
LINE
  5
184
330
1F
100
AcDbEntity
  8
0
100
AcDbLine
 10
12.41070639639907
 20
-9.216844507404065
 30
0.0
 11
12.05313949555381
 21
-9.682834765073796
 31
0.0
  0
LINE
  5
185
330
1F
100
AcDbEntity
  8
0
100
AcDbLine
 10
12.05313949555381
 20
-9.682834765073796
 30
0.0
 11
11.58714923788408
 21
-10.04040166591905
 31
0.0
  0
LINE
  5
186
330
1F
100
AcDbEntity
  8
0
100
AcDbLine
 10
11.58714923788408
 20
-10.04040166591905
 30
0.0
 11
11.04449208936476
 21
-10.26517761655447
 31
0.0
  0
LINE
  5
187
330
1F
100
AcDbEntity
  8
0
100
AcDbLine
 10
11.04449208936476
 20
-10.26517761655447
 30
0.0
 11
10.46214923788408
 21
-10.34184450740407
 31
0.0
  0
LINE
  5
188
330
1F
100
AcDbEntity
  8
0
100
AcDbLine
 10
10.46214923788408
 20
-10.34184450740407
 30
0.0
 11
9.879806386403404
 21
-10.26517761655447
 31
0.0
  0
LINE
  5
189
330
1F
100
AcDbEntity
  8
0
100
AcDbLine
 10
9.879806386403404
 20
-10.26517761655447
 30
0.0
 11
9.337149237884091
 21
-10.04040166591905
 31
0.0
  0
LINE
  5
18A
330
1F
100
AcDbEntity
  8
0
100
AcDbLine
 10
9.337149237884091
 20
-10.04040166591905
 30
0.0
 11
8.871158980214359
 21
-9.682834765073796
 31
0.0
  0
LINE
  5
18B
330
1F
100
AcDbEntity
  8
0
100
AcDbLine
 10
8.871158980214359
 20
-9.682834765073796
 30
0.0
 11
8.513592079369097
 21
-9.216844507404065
 31
0.0
  0
LINE
  5
18C
330
1F
100
AcDbEntity
  8
0
100
AcDbLine
 10
8.513592079369097
 20
-9.216844507404065
 30
0.0
 11
8.28881612873368
 21
-8.67418735888474
 31
0.0
  0
LINE
  5
18D
330
1F
100
AcDbEntity
  8
0
100
AcDbLine
 10
8.28881612873368
 20
-8.67418735888474
 30
0.0
 11
8.212149237884077
 21
-8.09184450740406
 31
0.0
  0
LINE
  5
18E
330
1F
100
AcDbEntity
  8
0
100
AcDbLine
 10
3.949709034511789
 20
-6.091844507404053
 30
0.0
 11
4.467347124716835
 21
-6.159992854825917
 31
0.0
  0
LINE
  5
18F
330
1F
100
AcDbEntity
  8
0
100
AcDbLine
 10
4.467347124716835
 20
-6.159992854825917
 30
0.0
 11
4.949709034511788
 21
-6.359793699835171
 31
0.0
  0
LINE
  5
190
330
1F
100
AcDbEntity
  8
0
100
AcDbLine
 10
4.949709034511788
 20
-6.359793699835171
 30
0.0
 11
5.363922596884888
 21
-6.677630945030963
 31
0.0
  0
LINE
  5
191
330
1F
100
AcDbEntity
  8
0
100
AcDbLine
 10
5.363922596884888
 20
-6.677630945030963
 30
0.0
 11
5.681759842080679
 21
-7.091844507404051
 31
0.0
  0
LINE
  5
192
330
1F
100
AcDbEntity
  8
0
100
AcDbLine
 10
5.681759842080679
 20
-7.091844507404051
 30
0.0
 11
5.881560687089934
 21
-7.574206417199015
 31
0.0
  0
LINE
  5
193
330
1F
100
AcDbEntity
  8
0
100
AcDbLine
 10
5.881560687089934
 20
-7.574206417199015
 30
0.0
 11
5.949709034511786
 21
-8.091844507404055
 31
0.0
  0
LINE
  5
194
330
1F
100
AcDbEntity
  8
0
100
AcDbLine
 10
5.949709034511786
 20
-8.091844507404055
 30
0.0
 11
5.881560687089934
 21
-8.609482597609095
 31
0.0
  0
LINE
  5
195
330
1F
100
AcDbEntity
  8
0
100
AcDbLine
 10
5.881560687089934
 20
-8.609482597609095
 30
0.0
 11
5.681759842080679
 21
-9.091844507404053
 31
0.0
  0
LINE
  5
196
330
1F
100
AcDbEntity
  8
0
100
AcDbLine
 10
5.681759842080679
 20
-9.091844507404053
 30
0.0
 11
5.363922596884888
 21
-9.506058069777154
 31
0.0
  0
LINE
  5
197
330
1F
100
AcDbEntity
  8
0
100
AcDbLine
 10
5.363922596884888
 20
-9.506058069777154
 30
0.0
 11
4.949709034511788
 21
-9.823895314972933
 31
0.0
  0
LINE
  5
198
330
1F
100
AcDbEntity
  8
0
100
AcDbLine
 10
4.949709034511788
 20
-9.823895314972933
 30
0.0
 11
4.467347124716835
 21
-10.02369615998219
 31
0.0
  0
LINE
  5
199
330
1F
100
AcDbEntity
  8
0
100
AcDbLine
 10
4.467347124716835
 20
-10.02369615998219
 30
0.0
 11
3.949709034511789
 21
-10.09184450740406
 31
0.0
  0
LINE
  5
19A
330
1F
100
AcDbEntity
  8
0
100
AcDbLine
 10
3.949709034511789
 20
-10.09184450740406
 30
0.0
 11
3.432070944306744
 21
-10.02369615998219
 31
0.0
  0
LINE
  5
19B
330
1F
100
AcDbEntity
  8
0
100
AcDbLine
 10
3.432070944306744
 20
-10.02369615998219
 30
0.0
 11
2.949709034511791
 21
-9.823895314972933
 31
0.0
  0
LINE
  5
19C
330
1F
100
AcDbEntity
  8
0
100
AcDbLine
 10
2.949709034511791
 20
-9.823895314972933
 30
0.0
 11
2.535495472138691
 21
-9.506058069777154
 31
0.0
  0
LINE
  5
19D
330
1F
100
AcDbEntity
  8
0
100
AcDbLine
 10
2.535495472138691
 20
-9.506058069777154
 30
0.0
 11
2.2176582269429
 21
-9.091844507404058
 31
0.0
  0
LINE
  5
19E
330
1F
100
AcDbEntity
  8
0
100
AcDbLine
 10
2.2176582269429
 20
-9.091844507404058
 30
0.0
 11
2.145894949493057
 21
-8.918592629704312
 31
0.0
  0
LINE
  5
19F
330
1F
100
AcDbEntity
  8
0
100
AcDbLine
 10
2.2176582269429
 20
-7.091844507404051
 30
0.0
 11
2.535495472138691
 21
-6.677630945030963
 31
0.0
  0
LINE
  5
1A0
330
1F
100
AcDbEntity
  8
0
100
AcDbLine
 10
2.535495472138691
 20
-6.677630945030963
 30
0.0
 11
2.949709034511791
 21
-6.359793699835171
 31
0.0
  0
LINE
  5
1A1
330
1F
100
AcDbEntity
  8
0
100
AcDbLine
 10
2.949709034511791
 20
-6.359793699835171
 30
0.0
 11
3.432070944306744
 21
-6.159992854825917
 31
0.0
  0
LINE
  5
1A2
330
1F
100
AcDbEntity
  8
0
100
AcDbLine
 10
3.432070944306744
 20
-6.159992854825917
 30
0.0
 11
3.949709034511789
 21
-6.091844507404053
 31
0.0
  0
LINE
  5
1A3
330
1F
100
AcDbEntity
  8
0
100
AcDbLine
 10
2.145894949493059
 20
-7.265096385103812
 30
0.0
 11
-17.08232390995432
 21
1.547837258809495
 31
0.0
  0
LINE
  5
1A4
330
1F
100
AcDbEntity
  8
0
100
AcDbLine
 10
2.145894949493059
 20
-7.265096385103812
 30
0.0
 11
2.2176582269429
 21
-7.091844507404051
 31
0.0
  0
LINE
  5
1A5
330
1F
100
AcDbEntity
  8
0
100
AcDbLine
 10
6.804172048132861
 20
-23.700625357701
 30
0.0
 11
6.573562954311568
 21
-22.49173015241563
 31
0.0
  0
LINE
  5
1A6
330
1F
100
AcDbEntity
  8
0
100
AcDbLine
 10
6.881447975250969
 20
-24.92889104663121
 30
0.0
 11
6.804172048132861
 21
-23.700625357701
 31
0.0
  0
LINE
  5
1A7
330
1F
100
AcDbEntity
  8
0
100
AcDbLine
 10
6.573562954311568
 20
-22.49173015241563
 30
0.0
 11
6.193257536955833
 21
-21.32127043032134
 31
0.0
  0
LINE
  5
1A8
330
1F
100
AcDbEntity
  8
0
100
AcDbLine
 10
6.193257536955833
 20
-21.32127043032134
 30
0.0
 11
5.669253439680825
 21
-20.2077050404344
 31
0.0
  0
LINE
  5
1A9
330
1F
100
AcDbEntity
  8
0
100
AcDbLine
 10
5.669253439680825
 20
-20.2077050404344
 30
0.0
 11
5.009814520125439
 21
-19.16859557416495
 31
0.0
  0
LINE
  5
1AA
330
1F
100
AcDbEntity
  8
0
100
AcDbLine
 10
5.009814520125439
 20
-19.16859557416495
 30
0.0
 11
4.225340523980819
 21
-18.22032940853004
 31
0.0
  0
LINE
  5
1AB
330
1F
100
AcDbEntity
  8
0
100
AcDbLine
 10
4.225340523980819
 20
-18.22032940853004
 30
0.0
 11
3.328203074788118
 21
-17.37786126742849
 31
0.0
  0
LINE
  5
1AC
330
1F
100
AcDbEntity
  8
0
100
AcDbLine
 10
3.328203074788118
 20
-17.37786126742849
 30
0.0
 11
2.332550566045167
 21
-16.65447737671144
 31
0.0
  0
LINE
  5
1AD
330
1F
100
AcDbEntity
  8
0
100
AcDbLine
 10
2.332550566045167
 20
-16.65447737671144
 30
0.0
 11
1.25408503258868
 21
-16.06158593246421
 31
0.0
  0
LINE
  5
1AE
330
1F
100
AcDbEntity
  8
0
100
AcDbLine
 10
1.25408503258868
 20
-16.06158593246421
 30
0.0
 11
0.1098145201254709
 21
-15.6085371869387
 31
0.0
  0
LINE
  5
1AF
330
1F
100
AcDbEntity
  8
0
100
AcDbLine
 10
0.1098145201254709
 20
-15.6085371869387
 30
0.0
 11
-1.08221514180891
 21
-15.30247598949006
 31
0.0
  0
LINE
  5
1B0
330
1F
100
AcDbEntity
  8
0
100
AcDbLine
 10
-1.08221514180891
 20
-15.30247598949006
 30
0.0
 11
-2.303204933361731
 21
-15.14822910803413
 31
0.0
  0
LINE
  5
1B1
330
1F
100
AcDbEntity
  8
0
100
AcDbLine
 10
-2.303204933361731
 20
-15.14822910803413
 30
0.0
 11
-3.533899116136274
 21
-15.14822910803413
 31
0.0
  0
LINE
  5
1B2
330
1F
100
AcDbEntity
  8
0
100
AcDbLine
 10
-3.533899116136274
 20
-15.14822910803413
 30
0.0
 11
-4.754888907689117
 21
-15.30247598949006
 31
0.0
  0
LINE
  5
1B3
330
1F
100
AcDbEntity
  8
0
100
AcDbLine
 10
-4.754888907689117
 20
-15.30247598949006
 30
0.0
 11
-5.946918569623499
 21
-15.6085371869387
 31
0.0
  0
LINE
  5
1B4
330
1F
100
AcDbEntity
  8
0
100
AcDbLine
 10
-5.946918569623499
 20
-15.6085371869387
 30
0.0
 11
-7.091189082086708
 21
-16.06158593246421
 31
0.0
  0
LINE
  5
1B5
330
1F
100
AcDbEntity
  8
0
100
AcDbLine
 10
-7.091189082086708
 20
-16.06158593246421
 30
0.0
 11
-8.169654615543172
 21
-16.65447737671144
 31
0.0
  0
LINE
  5
1B6
330
1F
100
AcDbEntity
  8
0
100
AcDbLine
 10
-8.169654615543172
 20
-16.65447737671144
 30
0.0
 11
-9.165307124286167
 21
-17.37786126742849
 31
0.0
  0
LINE
  5
1B7
330
1F
100
AcDbEntity
  8
0
100
AcDbLine
 10
-9.165307124286167
 20
-17.37786126742849
 30
0.0
 11
-10.06244457347885
 21
-18.22032940853004
 31
0.0
  0
LINE
  5
1B8
330
1F
100
AcDbEntity
  8
0
100
AcDbLine
 10
-10.06244457347885
 20
-18.22032940853004
 30
0.0
 11
-10.84691856962349
 21
-19.16859557416499
 31
0.0
  0
LINE
  5
1B9
330
1F
100
AcDbEntity
  8
0
100
AcDbLine
 10
-10.84691856962349
 20
-19.16859557416499
 30
0.0
 11
-11.50635748917885
 21
-20.2077050404344
 31
0.0
  0
LINE
  5
1BA
330
1F
100
AcDbEntity
  8
0
100
AcDbLine
 10
-11.50635748917885
 20
-20.2077050404344
 30
0.0
 11
-12.03036158645386
 21
-21.32127043032138
 31
0.0
  0
LINE
  5
1BB
330
1F
100
AcDbEntity
  8
0
100
AcDbLine
 10
-12.03036158645386
 20
-21.32127043032138
 30
0.0
 11
-12.41066700380957
 21
-22.49173015241563
 31
0.0
  0
LINE
  5
1BC
330
1F
100
AcDbEntity
  8
0
100
AcDbLine
 10
-12.41066700380957
 20
-22.49173015241563
 30
0.0
 11
-12.64127609763089
 21
-23.700625357701
 31
0.0
  0
LINE
  5
1BD
330
1F
100
AcDbEntity
  8
0
100
AcDbLine
 10
-12.64127609763089
 20
-23.700625357701
 30
0.0
 11
-12.718552024749
 21
-24.92889104663121
 31
0.0
  0
LINE
  5
1BE
330
1F
100
AcDbEntity
  8
0
100
AcDbLine
 10
-12.718552024749
 20
-24.92889104663121
 30
0.0
 11
-12.64127609763089
 21
-26.15715673556137
 31
0.0
  0
LINE
  5
1BF
330
1F
100
AcDbEntity
  8
0
100
AcDbLine
 10
-12.64127609763089
 20
-26.15715673556137
 30
0.0
 11
-12.41066700380957
 21
-27.36605194084679
 31
0.0
  0
LINE
  5
1C0
330
1F
100
AcDbEntity
  8
0
100
AcDbLine
 10
-12.03036158645386
 20
-28.53651166294108
 30
0.0
 11
-11.50635748917885
 21
-29.65007705282807
 31
0.0
  0
LINE
  5
1C1
330
1F
100
AcDbEntity
  8
0
100
AcDbLine
 10
-11.50635748917885
 20
-29.65007705282807
 30
0.0
 11
-10.84691856962347
 21
-30.68918651909744
 31
0.0
  0
LINE
  5
1C2
330
1F
100
AcDbEntity
  8
0
100
AcDbLine
 10
-10.84691856962347
 20
-30.68918651909744
 30
0.0
 11
-10.06244457347882
 21
-31.63745268473234
 31
0.0
  0
LINE
  5
1C3
330
1F
100
AcDbEntity
  8
0
100
AcDbLine
 10
-10.06244457347882
 20
-31.63745268473234
 30
0.0
 11
-9.165307124286146
 21
-32.47992082583393
 31
0.0
  0
LINE
  5
1C4
330
1F
100
AcDbEntity
  8
0
100
AcDbLine
 10
-9.165307124286146
 20
-32.47992082583393
 30
0.0
 11
-8.16965461554315
 21
-33.20330471655093
 31
0.0
  0
LINE
  5
1C5
330
1F
100
AcDbEntity
  8
0
100
AcDbLine
 10
-8.16965461554315
 20
-33.20330471655093
 30
0.0
 11
-7.091189082086708
 21
-33.79619616079817
 31
0.0
  0
LINE
  5
1C6
330
1F
100
AcDbEntity
  8
0
100
AcDbLine
 10
-7.091189082086708
 20
-33.79619616079817
 30
0.0
 11
-5.946918569623476
 21
-34.24924490632369
 31
0.0
  0
LINE
  5
1C7
330
1F
100
AcDbEntity
  8
0
100
AcDbLine
 10
-5.946918569623476
 20
-34.24924490632369
 30
0.0
 11
-4.754888907689095
 21
-34.55530610377233
 31
0.0
  0
LINE
  5
1C8
330
1F
100
AcDbEntity
  8
0
100
AcDbLine
 10
-4.754888907689095
 20
-34.55530610377233
 30
0.0
 11
-3.533899116136252
 21
-34.70955298522824
 31
0.0
  0
LINE
  5
1C9
330
1F
100
AcDbEntity
  8
0
100
AcDbLine
 10
-3.533899116136252
 20
-34.70955298522824
 30
0.0
 11
-2.303204933361708
 21
-34.70955298522824
 31
0.0
  0
LINE
  5
1CA
330
1F
100
AcDbEntity
  8
0
100
AcDbLine
 10
-2.303204933361708
 20
-34.70955298522824
 30
0.0
 11
-1.082215141808888
 21
-34.55530610377231
 31
0.0
  0
LINE
  5
1CB
330
1F
100
AcDbEntity
  8
0
100
AcDbLine
 10
-1.082215141808888
 20
-34.55530610377231
 30
0.0
 11
0.1098145201254935
 21
-34.24924490632367
 31
0.0
  0
LINE
  5
1CC
330
1F
100
AcDbEntity
  8
0
100
AcDbLine
 10
0.1098145201254935
 20
-34.24924490632367
 30
0.0
 11
1.254085032588725
 21
-33.79619616079812
 31
0.0
  0
LINE
  5
1CD
330
1F
100
AcDbEntity
  8
0
100
AcDbLine
 10
1.254085032588725
 20
-33.79619616079812
 30
0.0
 11
2.332550566045167
 21
-33.20330471655089
 31
0.0
  0
LINE
  5
1CE
330
1F
100
AcDbEntity
  8
0
100
AcDbLine
 10
2.332550566045167
 20
-33.20330471655089
 30
0.0
 11
3.328203074788163
 21
-32.47992082583389
 31
0.0
  0
LINE
  5
1CF
330
1F
100
AcDbEntity
  8
0
100
AcDbLine
 10
3.328203074788163
 20
-32.47992082583389
 30
0.0
 11
4.225340523980819
 21
-31.6374526847323
 31
0.0
  0
LINE
  5
1D0
330
1F
100
AcDbEntity
  8
0
100
AcDbLine
 10
4.225340523980819
 20
-31.6374526847323
 30
0.0
 11
5.009814520125484
 21
-30.68918651909739
 31
0.0
  0
LINE
  5
1D1
330
1F
100
AcDbEntity
  8
0
100
AcDbLine
 10
5.009814520125484
 20
-30.68918651909739
 30
0.0
 11
5.669253439680871
 21
-29.65007705282797
 31
0.0
  0
LINE
  5
1D2
330
1F
100
AcDbEntity
  8
0
100
AcDbLine
 10
5.669253439680871
 20
-29.65007705282797
 30
0.0
 11
6.193257536955833
 21
-28.53651166294104
 31
0.0
  0
LINE
  5
1D3
330
1F
100
AcDbEntity
  8
0
100
AcDbLine
 10
6.573562954311568
 20
-27.3660519408467
 30
0.0
 11
6.804172048132861
 21
-26.15715673556133
 31
0.0
  0
LINE
  5
1D4
330
1F
100
AcDbEntity
  8
0
100
AcDbLine
 10
6.804172048132861
 20
-26.15715673556133
 30
0.0
 11
6.881447975250969
 21
-24.92889104663121
 31
0.0
  0
LINE
  5
1D5
330
1F
100
AcDbEntity
  8
0
100
AcDbLine
 10
-20.44428664193508
 20
-10.89184450740413
 30
0.0
 11
-20.44428664193508
 21
-5.291844507404128
 31
0.0
  0
LINE
  5
1D6
330
1F
100
AcDbEntity
  8
0
100
AcDbLine
 10
-20.44428664193508
 20
-5.291844507404128
 30
0.0
 11
-26.04428664193507
 21
-5.291844507404128
 31
0.0
  0
LINE
  5
1D7
330
1F
100
AcDbEntity
  8
0
100
AcDbLine
 10
-26.04428664193507
 20
-5.291844507404128
 30
0.0
 11
-26.04428664193507
 21
-10.89184450740413
 31
0.0
  0
LINE
  5
1D8
330
1F
100
AcDbEntity
  8
0
100
AcDbLine
 10
-26.04428664193507
 20
-10.89184450740413
 30
0.0
 11
-20.44428664193508
 21
-10.89184450740413
 31
0.0
  0
LINE
  5
1D9
330
1F
100
AcDbEntity
  8
0
100
AcDbLine
 10
-20.72622164779738
 20
5.713923929847478
 30
0.0
 11
-20.72622164779738
 21
11.31392392984748
 31
0.0
  0
LINE
  5
1DA
330
1F
100
AcDbEntity
  8
0
100
AcDbLine
 10
-20.72622164779738
 20
11.31392392984748
 30
0.0
 11
-26.32622164779737
 21
11.31392392984748
 31
0.0
  0
LINE
  5
1DB
330
1F
100
AcDbEntity
  8
0
100
AcDbLine
 10
-26.32622164779737
 20
11.31392392984748
 30
0.0
 11
-26.32622164779737
 21
5.713923929847478
 31
0.0
  0
LINE
  5
1DC
330
1F
100
AcDbEntity
  8
0
100
AcDbLine
 10
-26.32622164779737
 20
5.713923929847478
 30
0.0
 11
-20.72622164779738
 21
5.713923929847478
 31
0.0
  0
LINE
  5
1DD
330
1F
100
AcDbEntity
  8
0
100
AcDbLine
 10
-20.72622164779738
 20
16.51392392984748
 30
0.0
 11
-20.72622164779738
 21
22.11392392984748
 31
0.0
  0
LINE
  5
1DE
330
1F
100
AcDbEntity
  8
0
100
AcDbLine
 10
-20.72622164779738
 20
22.11392392984748
 30
0.0
 11
-26.32622164779737
 21
22.11392392984748
 31
0.0
  0
LINE
  5
1DF
330
1F
100
AcDbEntity
  8
0
100
AcDbLine
 10
-26.32622164779737
 20
22.11392392984748
 30
0.0
 11
-26.32622164779737
 21
16.51392392984748
 31
0.0
  0
LINE
  5
1E0
330
1F
100
AcDbEntity
  8
0
100
AcDbLine
 10
-26.32622164779737
 20
16.51392392984748
 30
0.0
 11
-20.72622164779738
 21
16.51392392984748
 31
0.0
  0
LINE
  5
1E1
330
1F
100
AcDbEntity
  8
0
100
AcDbLine
 10
-20.68785076211591
 20
39.52211529768633
 30
0.0
 11
-20.68785076211591
 21
45.12211529768634
 31
0.0
  0
LINE
  5
1E2
330
1F
100
AcDbEntity
  8
0
100
AcDbLine
 10
-20.68785076211591
 20
45.12211529768634
 30
0.0
 11
-26.28785076211591
 21
45.12211529768634
 31
0.0
  0
LINE
  5
1E3
330
1F
100
AcDbEntity
  8
0
100
AcDbLine
 10
-26.28785076211591
 20
45.12211529768634
 30
0.0
 11
-26.28785076211591
 21
39.52211529768633
 31
0.0
  0
LINE
  5
1E4
330
1F
100
AcDbEntity
  8
0
100
AcDbLine
 10
-26.28785076211591
 20
39.52211529768633
 30
0.0
 11
-20.68785076211591
 21
39.52211529768633
 31
0.0
  0
LINE
  5
1E5
330
1F
100
AcDbEntity
  8
0
100
AcDbLine
 10
-20.68785076211591
 20
28.72211529768633
 30
0.0
 11
-20.68785076211591
 21
34.32211529768633
 31
0.0
  0
LINE
  5
1E6
330
1F
100
AcDbEntity
  8
0
100
AcDbLine
 10
-20.68785076211591
 20
34.32211529768633
 30
0.0
 11
-26.28785076211591
 21
34.32211529768633
 31
0.0
  0
LINE
  5
1E7
330
1F
100
AcDbEntity
  8
0
100
AcDbLine
 10
-26.28785076211591
 20
34.32211529768633
 30
0.0
 11
-26.28785076211591
 21
28.72211529768633
 31
0.0
  0
LINE
  5
1E8
330
1F
100
AcDbEntity
  8
0
100
AcDbLine
 10
-26.28785076211591
 20
28.72211529768633
 30
0.0
 11
-20.68785076211591
 21
28.72211529768633
 31
0.0
  0
LINE
  5
1E9
330
1F
100
AcDbEntity
  8
0
100
AcDbLine
 10
8.27377835220261
 20
13.91392392984732
 30
0.0
 11
10.42377835220262
 21
13.91392392984732
 31
0.0
  0
LINE
  5
1EA
330
1F
100
AcDbEntity
  8
0
100
AcDbLine
 10
8.17377835220261
 20
13.91392392984732
 30
0.0
 11
8.250445243052214
 21
14.496266781328
 31
0.0
  0
LINE
  5
1EB
330
1F
100
AcDbEntity
  8
0
100
AcDbLine
 10
8.250445243052214
 20
14.496266781328
 30
0.0
 11
8.47522119368763
 21
15.03892392984732
 31
0.0
  0
LINE
  5
1EC
330
1F
100
AcDbEntity
  8
0
100
AcDbLine
 10
8.47522119368763
 20
15.03892392984732
 30
0.0
 11
8.832788094532871
 21
15.50491418751705
 31
0.0
  0
LINE
  5
1ED
330
1F
100
AcDbEntity
  8
0
100
AcDbLine
 10
8.832788094532871
 20
15.50491418751705
 30
0.0
 11
9.298778352202604
 21
15.86248108836232
 31
0.0
  0
LINE
  5
1EE
330
1F
100
AcDbEntity
  8
0
100
AcDbLine
 10
9.298778352202604
 20
15.86248108836232
 30
0.0
 11
9.84143550072194
 21
16.08725703899773
 31
0.0
  0
LINE
  5
1EF
330
1F
100
AcDbEntity
  8
0
100
AcDbLine
 10
9.84143550072194
 20
16.08725703899773
 30
0.0
 11
10.42377835220262
 21
16.16392392984732
 31
0.0
  0
LINE
  5
1F0
330
1F
100
AcDbEntity
  8
0
100
AcDbLine
 10
10.42377835220262
 20
16.16392392984732
 30
0.0
 11
11.0061212036833
 21
16.08725703899773
 31
0.0
  0
LINE
  5
1F1
330
1F
100
AcDbEntity
  8
0
100
AcDbLine
 10
11.0061212036833
 20
16.08725703899773
 30
0.0
 11
11.54877835220261
 21
15.86248108836232
 31
0.0
  0
LINE
  5
1F2
330
1F
100
AcDbEntity
  8
0
100
AcDbLine
 10
11.54877835220261
 20
15.86248108836232
 30
0.0
 11
12.01476860987236
 21
15.50491418751705
 31
0.0
  0
LINE
  5
1F3
330
1F
100
AcDbEntity
  8
0
100
AcDbLine
 10
12.01476860987236
 20
15.50491418751705
 30
0.0
 11
12.3723355107176
 21
15.03892392984732
 31
0.0
  0
LINE
  5
1F4
330
1F
100
AcDbEntity
  8
0
100
AcDbLine
 10
12.3723355107176
 20
15.03892392984732
 30
0.0
 11
12.59711146135302
 21
14.49626678132798
 31
0.0
  0
LINE
  5
1F5
330
1F
100
AcDbEntity
  8
0
100
AcDbLine
 10
12.59711146135302
 20
14.49626678132798
 30
0.0
 11
12.67377835220262
 21
13.91392392984732
 31
0.0
  0
LINE
  5
1F6
330
1F
100
AcDbEntity
  8
0
100
AcDbLine
 10
12.67377835220262
 20
13.91392392984732
 30
0.0
 11
12.59711146135302
 21
13.33158107836664
 31
0.0
  0
LINE
  5
1F7
330
1F
100
AcDbEntity
  8
0
100
AcDbLine
 10
12.59711146135302
 20
13.33158107836664
 30
0.0
 11
12.3723355107176
 21
12.78892392984731
 31
0.0
  0
LINE
  5
1F8
330
1F
100
AcDbEntity
  8
0
100
AcDbLine
 10
12.3723355107176
 20
12.78892392984731
 30
0.0
 11
12.01476860987236
 21
12.32293367217758
 31
0.0
  0
LINE
  5
1F9
330
1F
100
AcDbEntity
  8
0
100
AcDbLine
 10
12.01476860987236
 20
12.32293367217758
 30
0.0
 11
11.54877835220261
 21
11.96536677133232
 31
0.0
  0
LINE
  5
1FA
330
1F
100
AcDbEntity
  8
0
100
AcDbLine
 10
11.54877835220261
 20
11.96536677133232
 30
0.0
 11
11.0061212036833
 21
11.7405908206969
 31
0.0
  0
LINE
  5
1FB
330
1F
100
AcDbEntity
  8
0
100
AcDbLine
 10
11.0061212036833
 20
11.7405908206969
 30
0.0
 11
10.42377835220262
 21
11.66392392984731
 31
0.0
  0
LINE
  5
1FC
330
1F
100
AcDbEntity
  8
0
100
AcDbLine
 10
10.42377835220262
 20
11.66392392984731
 30
0.0
 11
9.84143550072194
 21
11.7405908206969
 31
0.0
  0
LINE
  5
1FD
330
1F
100
AcDbEntity
  8
0
100
AcDbLine
 10
9.84143550072194
 20
11.7405908206969
 30
0.0
 11
9.298778352202625
 21
11.96536677133232
 31
0.0
  0
LINE
  5
1FE
330
1F
100
AcDbEntity
  8
0
100
AcDbLine
 10
9.298778352202625
 20
11.96536677133232
 30
0.0
 11
8.832788094532892
 21
12.32293367217758
 31
0.0
  0
LINE
  5
1FF
330
1F
100
AcDbEntity
  8
0
100
AcDbLine
 10
8.832788094532892
 20
12.32293367217758
 30
0.0
 11
8.47522119368763
 21
12.78892392984731
 31
0.0
  0
LINE
  5
200
330
1F
100
AcDbEntity
  8
0
100
AcDbLine
 10
8.47522119368763
 20
12.78892392984731
 30
0.0
 11
8.250445243052214
 21
13.33158107836664
 31
0.0
  0
LINE
  5
201
330
1F
100
AcDbEntity
  8
0
100
AcDbLine
 10
8.250445243052214
 20
13.33158107836664
 30
0.0
 11
8.17377835220261
 21
13.91392392984732
 31
0.0
  0
LINE
  5
202
330
1F
100
AcDbEntity
  8
0
100
AcDbLine
 10
-7.400598147455979
 20
16.15579999525612
 30
0.0
 11
-7.066305114669105
 21
16.13502472203207
 31
0.0
  0
LINE
  5
203
330
1F
100
AcDbEntity
  8
0
100
AcDbLine
 10
-7.066305114669105
 20
16.13502472203207
 30
0.0
 11
-6.758453338712804
 21
16.07269890235995
 31
0.0
  0
LINE
  5
204
330
1F
100
AcDbEntity
  8
0
100
AcDbLine
 10
-6.758453338712804
 20
16.07269890235995
 30
0.0
 11
-6.477042819587135
 21
15.96882253623973
 31
0.0
  0
LINE
  5
205
330
1F
100
AcDbEntity
  8
0
100
AcDbLine
 10
-6.477042819587135
 20
15.96882253623973
 30
0.0
 11
-6.222073557292036
 21
15.82339562367141
 31
0.0
  0
LINE
  5
206
330
1F
100
AcDbEntity
  8
0
100
AcDbLine
 10
-6.222073557292036
 20
15.82339562367141
 30
0.0
 11
-5.992790087346699
 21
15.64888332858945
 31
0.0
  0
LINE
  5
207
330
1F
100
AcDbEntity
  8
0
100
AcDbLine
 10
-5.992790087346699
 20
15.64888332858945
 30
0.0
 11
-5.794480661117181
 21
15.45170709908126
 31
0.0
  0
LINE
  5
208
330
1F
100
AcDbEntity
  8
0
100
AcDbLine
 10
-5.794480661117181
 20
15.45170709908126
 30
0.0
 11
-5.627145278603521
 21
15.23186693514683
 31
0.0
  0
LINE
  5
209
330
1F
100
AcDbEntity
  8
0
100
AcDbLine
 10
-5.627145278603521
 20
15.23186693514683
 30
0.0
 11
-5.490783939805721
 21
14.98936283678619
 31
0.0
  0
LINE
  5
20A
330
1F
100
AcDbEntity
  8
0
100
AcDbLine
 10
-5.490783939805721
 20
14.98936283678619
 30
0.0
 11
-5.309472464395874
 21
14.47413606082989
 31
0.0
  0
LINE
  5
20B
330
1F
100
AcDbEntity
  8
0
100
AcDbLine
 10
-5.309472464395874
 20
14.47413606082989
 30
0.0
 11
-5.249035305925939
 21
13.94379999525612
 31
0.0
  0
LINE
  5
20C
330
1F
100
AcDbEntity
  8
0
100
AcDbLine
 10
-5.249035305925939
 20
13.94379999525612
 30
0.0
 11
-5.309472464395874
 21
13.41648578760585
 31
0.0
  0
LINE
  5
20D
330
1F
100
AcDbEntity
  8
0
100
AcDbLine
 10
-5.309472464395874
 20
13.41648578760585
 30
0.0
 11
-5.490783939805721
 21
12.89823715372607
 31
0.0
  0
LINE
  5
20E
330
1F
100
AcDbEntity
  8
0
100
AcDbLine
 10
-5.490783939805721
 20
12.89823715372607
 30
0.0
 11
-5.623745688439591
 21
12.65535532312497
 31
0.0
  0
LINE
  5
20F
330
1F
100
AcDbEntity
  8
0
100
AcDbLine
 10
-5.623745688439591
 20
12.65535532312497
 30
0.0
 11
-5.786926016308449
 21
12.43438196246924
 31
0.0
  0
LINE
  5
210
330
1F
100
AcDbEntity
  8
0
100
AcDbLine
 10
-5.786926016308449
 20
12.43438196246924
 30
0.0
 11
-5.980324923412274
 21
12.23531707175885
 31
0.0
  0
LINE
  5
211
330
1F
100
AcDbEntity
  8
0
100
AcDbLine
 10
-5.980324923412274
 20
12.23531707175885
 30
0.0
 11
-6.203942409751068
 21
12.05816065099383
 31
0.0
  0
LINE
  5
212
330
1F
100
AcDbEntity
  8
0
100
AcDbLine
 10
-6.203942409751068
 20
12.05816065099383
 30
0.0
 11
-6.452490223958711
 21
11.91537786410858
 31
0.0
  0
LINE
  5
213
330
1F
100
AcDbEntity
  8
0
100
AcDbLine
 10
-6.452490223958711
 20
11.91537786410858
 30
0.0
 11
-6.726723830516094
 21
11.81339015919055
 31
0.0
  0
LINE
  5
214
330
1F
100
AcDbEntity
  8
0
100
AcDbLine
 10
-6.726723830516094
 20
11.81339015919055
 30
0.0
 11
-7.026643229423219
 21
11.75219753623973
 31
0.0
  0
LINE
  5
215
330
1F
100
AcDbEntity
  8
0
100
AcDbLine
 10
-7.026643229423219
 20
11.75219753623973
 30
0.0
 11
-7.352248420680023
 21
11.73179999525613
 31
0.0
  0
LINE
  5
216
330
1F
100
AcDbEntity
  8
0
100
AcDbLine
 10
-7.352248420680023
 20
11.73179999525613
 30
0.0
 11
-7.699762081882213
 21
11.75181980399929
 31
0.0
  0
LINE
  5
217
330
1F
100
AcDbEntity
  8
0
100
AcDbLine
 10
-7.699762081882213
 20
11.75181980399929
 30
0.0
 11
-8.017057163849433
 21
11.81187923022879
 31
0.0
  0
LINE
  5
218
330
1F
100
AcDbEntity
  8
0
100
AcDbLine
 10
-8.017057163849433
 20
11.81187923022879
 30
0.0
 11
-8.304133666581667
 21
11.91197827394465
 31
0.0
  0
LINE
  5
219
330
1F
100
AcDbEntity
  8
0
100
AcDbLine
 10
-8.304133666581667
 20
11.91197827394465
 30
0.0
 11
-8.560991590078954
 21
12.05211693514683
 31
0.0
  0
LINE
  5
21A
330
1F
100
AcDbEntity
  8
0
100
AcDbLine
 10
-8.560991590078954
 20
12.05211693514683
 30
0.0
 11
-8.78687546986036
 21
12.2236073723053
 31
0.0
  0
LINE
  5
21B
330
1F
100
AcDbEntity
  8
0
100
AcDbLine
 10
-8.78687546986036
 20
12.2236073723053
 30
0.0
 11
-8.981029841445057
 21
12.41776174389
 31
0.0
  0
LINE
  5
21C
330
1F
100
AcDbEntity
  8
0
100
AcDbLine
 10
-8.981029841445057
 20
12.41776174389
 30
0.0
 11
-9.143454704833045
 21
12.63458004990092
 31
0.0
  0
LINE
  5
21D
330
1F
100
AcDbEntity
  8
0
100
AcDbLine
 10
-9.143454704833045
 20
12.63458004990092
 30
0.0
 11
-9.274150060024281
 21
12.87406229033809
 31
0.0
  0
LINE
  5
21E
330
1F
100
AcDbEntity
  8
0
100
AcDbLine
 10
-9.274150060024281
 20
12.87406229033809
 30
0.0
 11
-9.446395961663653
 21
13.39533278214137
 31
0.0
  0
LINE
  5
21F
330
1F
100
AcDbEntity
  8
0
100
AcDbLine
 10
-9.446395961663653
 20
13.39533278214137
 30
0.0
 11
-9.503811262210103
 21
13.94379999525612
 31
0.0
  0
LINE
  5
220
330
1F
100
AcDbEntity
  8
0
100
AcDbLine
 10
-9.503811262210103
 20
13.94379999525612
 30
0.0
 11
-9.44488503270189
 21
14.47413606082989
 31
0.0
  0
LINE
  5
221
330
1F
100
AcDbEntity
  8
0
100
AcDbLine
 10
-9.44488503270189
 20
14.47413606082989
 30
0.0
 11
-9.26810634417731
 21
14.98936283678619
 31
0.0
  0
LINE
  5
222
330
1F
100
AcDbEntity
  8
0
100
AcDbLine
 10
-9.26810634417731
 20
14.98936283678619
 30
0.0
 11
-9.132878202100787
 21
15.23186693514683
 31
0.0
  0
LINE
  5
223
330
1F
100
AcDbEntity
  8
0
100
AcDbLine
 10
-9.132878202100787
 20
15.23186693514683
 30
0.0
 11
-8.968942409751058
 21
15.45170709908126
 31
0.0
  0
LINE
  5
224
330
1F
100
AcDbEntity
  8
0
100
AcDbLine
 10
-8.968942409751058
 20
15.45170709908126
 30
0.0
 11
-8.776298967128124
 21
15.64888332858945
 31
0.0
  0
LINE
  5
225
330
1F
100
AcDbEntity
  8
0
100
AcDbLine
 10
-8.776298967128124
 20
15.64888332858945
 30
0.0
 11
-8.554947874231944
 21
15.82339562367141
 31
0.0
  0
LINE
  5
226
330
1F
100
AcDbEntity
  8
0
100
AcDbLine
 10
-8.554947874231944
 20
15.82339562367141
 30
0.0
 11
-8.303755934341243
 21
15.96882253623973
 31
0.0
  0
LINE
  5
227
330
1F
100
AcDbEntity
  8
0
100
AcDbLine
 10
-8.303755934341243
 20
15.96882253623973
 30
0.0
 11
-8.02763366658167
 21
16.07269890235995
 31
0.0
  0
LINE
  5
228
330
1F
100
AcDbEntity
  8
0
100
AcDbLine
 10
-8.02763366658167
 20
16.07269890235995
 30
0.0
 11
-7.72658107095325
 21
16.13502472203207
 31
0.0
  0
LINE
  5
229
330
1F
100
AcDbEntity
  8
0
100
AcDbLine
 10
-7.72658107095325
 20
16.13502472203207
 30
0.0
 11
-7.400598147455979
 21
16.15579999525612
 31
0.0
  0
LINE
  5
22A
330
1F
100
AcDbEntity
  8
0
100
AcDbLine
 10
-7.418729294996968
 20
15.91405136137634
 30
0.0
 11
-7.646124103740158
 21
15.89705341055666
 31
0.0
  0
LINE
  5
22B
330
1F
100
AcDbEntity
  8
0
100
AcDbLine
 10
-7.646124103740158
 20
15.89705341055666
 30
0.0
 11
-7.85689869390408
 21
15.84605955809765
 31
0.0
  0
LINE
  5
22C
330
1F
100
AcDbEntity
  8
0
100
AcDbLine
 10
-7.85689869390408
 20
15.84605955809765
 30
0.0
 11
-8.051053065488778
 21
15.7610698039993
 31
0.0
  0
LINE
  5
22D
330
1F
100
AcDbEntity
  8
0
100
AcDbLine
 10
-8.051053065488778
 20
15.7610698039993
 30
0.0
 11
-8.22858721849425
 21
15.64208414826159
 31
0.0
  0
LINE
  5
22E
330
1F
100
AcDbEntity
  8
0
100
AcDbLine
 10
-8.22858721849425
 20
15.64208414826159
 30
0.0
 11
-8.52624022395874
 21
15.33536556902661
 31
0.0
  0
LINE
  5
22F
330
1F
100
AcDbEntity
  8
0
100
AcDbLine
 10
-8.52624022395874
 20
15.33536556902661
 30
0.0
 11
-8.74230306548878
 21
14.94705682585722
 31
0.0
  0
LINE
  5
230
330
1F
100
AcDbEntity
  8
0
100
AcDbLine
 10
-8.74230306548878
 20
14.94705682585722
 30
0.0
 11
-8.869221098275661
 21
14.50888742695011
 31
0.0
  0
LINE
  5
231
330
1F
100
AcDbEntity
  8
0
100
AcDbLine
 10
-8.869221098275661
 20
14.50888742695011
 30
0.0
 11
-8.911527109204608
 21
14.05258688050202
 31
0.0
  0
LINE
  5
232
330
1F
100
AcDbEntity
  8
0
100
AcDbLine
 10
-8.911527109204608
 20
14.05258688050202
 30
0.0
 11
-8.867710169313899
 21
13.57362239962771
 31
0.0
  0
LINE
  5
233
330
1F
100
AcDbEntity
  8
0
100
AcDbLine
 10
-8.867710169313899
 20
13.57362239962771
 30
0.0
 11
-8.73625934964177
 21
13.0916360608299
 31
0.0
  0
LINE
  5
234
330
1F
100
AcDbEntity
  8
0
100
AcDbLine
 10
-8.73625934964177
 20
13.0916360608299
 30
0.0
 11
-8.515663721226483
 21
12.65346666192278
 31
0.0
  0
LINE
  5
235
330
1F
100
AcDbEntity
  8
0
100
AcDbLine
 10
-8.515663721226483
 20
12.65346666192278
 30
0.0
 11
-8.20441235510625
 21
12.29386556902661
 31
0.0
  0
LINE
  5
236
330
1F
100
AcDbEntity
  8
0
100
AcDbLine
 10
-8.20441235510625
 20
12.29386556902661
 30
0.0
 11
-8.01667943160901
 21
12.15637103350749
 31
0.0
  0
LINE
  5
237
330
1F
100
AcDbEntity
  8
0
100
AcDbLine
 10
-8.01667943160901
 20
12.15637103350749
 30
0.0
 11
-7.810059896089887
 21
12.05816065099383
 31
0.0
  0
LINE
  5
238
330
1F
100
AcDbEntity
  8
0
100
AcDbLine
 10
-7.810059896089887
 20
12.05816065099383
 30
0.0
 11
-7.584553748548906
 21
11.99923442148563
 31
0.0
  0
LINE
  5
239
330
1F
100
AcDbEntity
  8
0
100
AcDbLine
 10
-7.584553748548906
 20
11.99923442148563
 30
0.0
 11
-7.340160988986043
 21
11.9795923449829
 31
0.0
  0
LINE
  5
23A
330
1F
100
AcDbEntity
  8
0
100
AcDbLine
 10
-7.340160988986043
 20
11.9795923449829
 30
0.0
 11
-7.11314391248332
 21
11.99621256356212
 31
0.0
  0
LINE
  5
23B
330
1F
100
AcDbEntity
  8
0
100
AcDbLine
 10
-7.11314391248332
 20
11.99621256356212
 30
0.0
 11
-6.903502519040674
 21
12.04607321929983
 31
0.0
  0
LINE
  5
23C
330
1F
100
AcDbEntity
  8
0
100
AcDbLine
 10
-6.903502519040674
 20
12.04607321929983
 30
0.0
 11
-6.711236808658184
 21
12.12917431219601
 31
0.0
  0
LINE
  5
23D
330
1F
100
AcDbEntity
  8
0
100
AcDbLine
 10
-6.711236808658184
 20
12.12917431219601
 30
0.0
 11
-6.536346781335753
 21
12.24551584225066
 31
0.0
  0
LINE
  5
23E
330
1F
100
AcDbEntity
  8
0
100
AcDbLine
 10
-6.536346781335753
 20
12.24551584225066
 30
0.0
 11
-6.240204704833025
 21
12.55525627940913
 31
0.0
  0
LINE
  5
23F
330
1F
100
AcDbEntity
  8
0
100
AcDbLine
 10
-6.240204704833025
 20
12.55525627940913
 30
0.0
 11
-6.028674650188231
 21
12.94054316465503
 31
0.0
  0
LINE
  5
240
330
1F
100
AcDbEntity
  8
0
100
AcDbLine
 10
-6.028674650188231
 20
12.94054316465503
 30
0.0
 11
-5.897223830516103
 21
13.37417977667688
 31
0.0
  0
LINE
  5
241
330
1F
100
AcDbEntity
  8
0
100
AcDbLine
 10
-5.897223830516103
 20
13.37417977667688
 30
0.0
 11
-5.853406890625394
 21
13.82896939416322
 31
0.0
  0
LINE
  5
242
330
1F
100
AcDbEntity
  8
0
100
AcDbLine
 10
-5.853406890625394
 20
13.82896939416322
 30
0.0
 11
-5.900245688439588
 21
14.33361966738727
 31
0.0
  0
LINE
  5
243
330
1F
100
AcDbEntity
  8
0
100
AcDbLine
 10
-5.900245688439588
 20
14.33361966738727
 30
0.0
 11
-6.040762081882231
 21
14.82013879307033
 31
0.0
  0
LINE
  5
244
330
1F
100
AcDbEntity
  8
0
100
AcDbLine
 10
-6.040762081882231
 20
14.82013879307033
 30
0.0
 11
-6.270423284068013
 21
15.25830819197743
 31
0.0
  0
LINE
  5
245
330
1F
100
AcDbEntity
  8
0
100
AcDbLine
 10
-6.270423284068013
 20
15.25830819197743
 30
0.0
 11
-6.58469650811173
 21
15.60582185317962
 31
0.0
  0
LINE
  5
246
330
1F
100
AcDbEntity
  8
0
100
AcDbLine
 10
-6.58469650811173
 20
15.60582185317962
 30
0.0
 11
-6.770540770406823
 21
15.74067226301569
 31
0.0
  0
LINE
  5
247
330
1F
100
AcDbEntity
  8
0
100
AcDbLine
 10
-6.770540770406823
 20
15.74067226301569
 30
0.0
 11
-6.971494322319381
 21
15.83699398432716
 31
0.0
  0
LINE
  5
248
330
1F
100
AcDbEntity
  8
0
100
AcDbLine
 10
-6.971494322319381
 20
15.83699398432716
 30
0.0
 11
-7.187557163849423
 21
15.89478701711404
 31
0.0
  0
LINE
  5
249
330
1F
100
AcDbEntity
  8
0
100
AcDbLine
 10
-7.187557163849423
 20
15.89478701711404
 30
0.0
 11
-7.418729294996968
 21
15.91405136137634
 31
0.0
  0
LINE
  5
24A
330
1F
100
AcDbEntity
  8
0
100
AcDbLine
 10
-3.266696508111726
 20
16.0651442575512
 30
0.0
 11
-2.869322191171837
 21
16.04248032312497
 31
0.0
  0
LINE
  5
24B
330
1F
100
AcDbEntity
  8
0
100
AcDbLine
 10
-2.869322191171837
 20
16.04248032312497
 30
0.0
 11
-2.52936317477838
 21
15.98657595154028
 31
0.0
  0
LINE
  5
24C
330
1F
100
AcDbEntity
  8
0
100
AcDbLine
 10
-2.52936317477838
 20
15.98657595154028
 30
0.0
 11
-2.246819458931393
 21
15.89743114279711
 31
0.0
  0
LINE
  5
24D
330
1F
100
AcDbEntity
  8
0
100
AcDbLine
 10
-2.246819458931393
 20
15.89743114279711
 30
0.0
 11
-2.021691043630838
 21
15.77504589689547
 31
0.0
  0
LINE
  5
24E
330
1F
100
AcDbEntity
  8
0
100
AcDbLine
 10
-2.021691043630838
 20
15.77504589689547
 30
0.0
 11
-1.847178748548891
 21
15.62357526848016
 31
0.0
  0
LINE
  5
24F
330
1F
100
AcDbEntity
  8
0
100
AcDbLine
 10
-1.847178748548891
 20
15.62357526848016
 30
0.0
 11
-1.722527109204625
 21
15.44113059634902
 31
0.0
  0
LINE
  5
250
330
1F
100
AcDbEntity
  8
0
100
AcDbLine
 10
-1.722527109204625
 20
15.44113059634902
 30
0.0
 11
-1.647736125598077
 21
15.22771188050203
 31
0.0
  0
LINE
  5
251
330
1F
100
AcDbEntity
  8
0
100
AcDbLine
 10
-1.647736125598077
 20
15.22771188050203
 30
0.0
 11
-1.622805797729207
 21
14.98331912093918
 31
0.0
  0
LINE
  5
252
330
1F
100
AcDbEntity
  8
0
100
AcDbLine
 10
-1.622805797729207
 20
14.98331912093918
 30
0.0
 11
-1.636026426144503
 21
14.780099175584
 31
0.0
  0
LINE
  5
253
330
1F
100
AcDbEntity
  8
0
100
AcDbLine
 10
-1.636026426144503
 20
14.780099175584
 30
0.0
 11
-1.6817320272374
 21
14.58745573296104
 31
0.0
  0
LINE
  5
254
330
1F
100
AcDbEntity
  8
0
100
AcDbLine
 10
-1.6817320272374
 20
14.58745573296104
 30
0.0
 11
-1.759922601007899
 21
14.40538879307033
 31
0.0
  0
LINE
  5
255
330
1F
100
AcDbEntity
  8
0
100
AcDbLine
 10
-1.759922601007899
 20
14.40538879307033
 30
0.0
 11
-1.870598147455979
 21
14.23389835591186
 31
0.0
  0
LINE
  5
256
330
1F
100
AcDbEntity
  8
0
100
AcDbLine
 10
-1.870598147455979
 20
14.23389835591186
 30
0.0
 11
-2.020935579149967
 21
14.08053906629438
 31
0.0
  0
LINE
  5
257
330
1F
100
AcDbEntity
  8
0
100
AcDbLine
 10
-2.020935579149967
 20
14.08053906629438
 30
0.0
 11
-2.218111808658168
 21
13.95286556902662
 31
0.0
  0
LINE
  5
258
330
1F
100
AcDbEntity
  8
0
100
AcDbLine
 10
-2.218111808658168
 20
13.95286556902662
 30
0.0
 11
-2.462126835980583
 21
13.85087786410858
 31
0.0
  0
LINE
  5
259
330
1F
100
AcDbEntity
  8
0
100
AcDbLine
 10
-2.462126835980583
 20
13.85087786410858
 30
0.0
 11
-2.752980661117194
 21
13.77457595154028
 31
0.0
  0
LINE
  5
25A
330
1F
100
AcDbEntity
  8
0
100
AcDbLine
 10
-2.752980661117194
 20
13.77457595154028
 30
0.0
 11
-2.565625469860358
 21
13.58722076028345
 31
0.0
  0
LINE
  5
25B
330
1F
100
AcDbEntity
  8
0
100
AcDbLine
 10
-2.565625469860358
 20
13.58722076028345
 30
0.0
 11
-2.335964267674555
 21
13.24877267285176
 31
0.0
  0
LINE
  5
25C
330
1F
100
AcDbEntity
  8
0
100
AcDbLine
 10
-2.335964267674555
 20
13.24877267285176
 30
0.0
 11
-1.924991590078944
 21
12.60209507722333
 31
0.0
  0
LINE
  5
25D
330
1F
100
AcDbEntity
  8
0
100
AcDbLine
 10
-1.924991590078944
 20
12.60209507722333
 30
0.0
 11
-1.707417819587121
 21
12.27573442148563
 31
0.0
  0
LINE
  5
25E
330
1F
100
AcDbEntity
  8
0
100
AcDbLine
 10
-1.707417819587121
 20
12.27573442148563
 30
0.0
 11
-1.495887764942326
 21
12.09442294607579
 31
0.0
  0
LINE
  5
25F
330
1F
100
AcDbEntity
  8
0
100
AcDbLine
 10
-1.495887764942326
 20
12.09442294607579
 30
0.0
 11
-1.355371371499704
 21
12.04456229033809
 31
0.0
  0
LINE
  5
260
330
1F
100
AcDbEntity
  8
0
100
AcDbLine
 10
-1.355371371499704
 20
12.04456229033809
 30
0.0
 11
-1.1876582567456
 21
12.02794207175885
 31
0.0
  0
LINE
  5
261
330
1F
100
AcDbEntity
  8
0
100
AcDbLine
 10
-1.1876582567456
 20
12.02794207175885
 30
0.0
 11
-1.1876582567456
 21
11.82849944880803
 31
0.0
  0
LINE
  5
262
330
1F
100
AcDbEntity
  8
0
100
AcDbLine
 10
-1.1876582567456
 20
11.82849944880803
 30
0.0
 11
-1.949166453466924
 21
11.82849944880803
 31
0.0
  0
LINE
  5
263
330
1F
100
AcDbEntity
  8
0
100
AcDbLine
 10
-1.949166453466924
 20
11.82849944880803
 30
0.0
 11
-2.227177382428662
 21
12.11255409361678
 31
0.0
  0
LINE
  5
264
330
1F
100
AcDbEntity
  8
0
100
AcDbLine
 10
-2.227177382428662
 20
12.11255409361678
 30
0.0
 11
-2.487057163849433
 21
12.49935190782442
 31
0.0
  0
LINE
  5
265
330
1F
100
AcDbEntity
  8
0
100
AcDbLine
 10
-2.487057163849433
 20
12.49935190782442
 30
0.0
 11
-2.891986125598053
 21
13.14602950345284
 31
0.0
  0
LINE
  5
266
330
1F
100
AcDbEntity
  8
0
100
AcDbLine
 10
-2.891986125598053
 20
13.14602950345284
 30
0.0
 11
-2.970554431608997
 21
13.27294753623973
 31
0.0
  0
LINE
  5
267
330
1F
100
AcDbEntity
  8
0
100
AcDbLine
 10
-2.970554431608997
 20
13.27294753623973
 30
0.0
 11
-3.139778475324825
 21
13.53887103350748
 31
0.0
  0
LINE
  5
268
330
1F
100
AcDbEntity
  8
0
100
AcDbLine
 10
-3.139778475324825
 20
13.53887103350748
 30
0.0
 11
-3.296915087346692
 21
13.72018250891732
 31
0.0
  0
LINE
  5
269
330
1F
100
AcDbEntity
  8
0
100
AcDbLine
 10
-3.296915087346692
 20
13.72018250891732
 30
0.0
 11
-3.466139131062561
 21
13.71413879307033
 31
0.0
  0
LINE
  5
26A
330
1F
100
AcDbEntity
  8
0
100
AcDbLine
 10
-3.466139131062561
 20
13.71413879307033
 30
0.0
 11
-3.707887764942323
 21
13.72018250891732
 31
0.0
  0
LINE
  5
26B
330
1F
100
AcDbEntity
  8
0
100
AcDbLine
 10
-3.707887764942323
 20
13.72018250891732
 30
0.0
 11
-3.707887764942323
 21
12.54770163460039
 31
0.0
  0
LINE
  5
26C
330
1F
100
AcDbEntity
  8
0
100
AcDbLine
 10
-3.707887764942323
 20
12.54770163460039
 30
0.0
 11
-3.726018912483312
 21
12.07024808268782
 31
0.0
  0
LINE
  5
26D
330
1F
100
AcDbEntity
  8
0
100
AcDbLine
 10
-3.726018912483312
 20
12.07024808268782
 30
0.0
 11
-3.290871371499704
 21
12.09442294607579
 31
0.0
  0
LINE
  5
26E
330
1F
100
AcDbEntity
  8
0
100
AcDbLine
 10
-3.290871371499704
 20
12.09442294607579
 30
0.0
 11
-3.290871371499704
 21
11.82849944880803
 31
0.0
  0
LINE
  5
26F
330
1F
100
AcDbEntity
  8
0
100
AcDbLine
 10
-3.290871371499704
 20
11.82849944880803
 30
0.0
 11
-4.650707437073473
 21
11.82849944880803
 31
0.0
  0
LINE
  5
270
330
1F
100
AcDbEntity
  8
0
100
AcDbLine
 10
-4.650707437073473
 20
11.82849944880803
 30
0.0
 11
-4.650707437073473
 21
12.02794207175885
 31
0.0
  0
LINE
  5
271
330
1F
100
AcDbEntity
  8
0
100
AcDbLine
 10
-4.650707437073473
 20
12.02794207175885
 30
0.0
 11
-4.469395961663646
 21
12.05513879307033
 31
0.0
  0
LINE
  5
272
330
1F
100
AcDbEntity
  8
0
100
AcDbLine
 10
-4.469395961663646
 20
12.05513879307033
 30
0.0
 11
-4.348521644723736
 21
12.12464152531077
 31
0.0
  0
LINE
  5
273
330
1F
100
AcDbEntity
  8
0
100
AcDbLine
 10
-4.348521644723736
 20
12.12464152531077
 30
0.0
 11
-4.277507983521564
 21
12.22285190782443
 31
0.0
  0
LINE
  5
274
330
1F
100
AcDbEntity
  8
0
100
AcDbLine
 10
-4.277507983521564
 20
12.22285190782443
 30
0.0
 11
-4.245778475324833
 21
12.33617157995557
 31
0.0
  0
LINE
  5
275
330
1F
100
AcDbEntity
  8
0
100
AcDbLine
 10
-4.245778475324833
 20
12.33617157995557
 30
0.0
 11
-4.233691043630854
 21
12.77131912093918
 31
0.0
  0
LINE
  5
276
330
1F
100
AcDbEntity
  8
0
100
AcDbLine
 10
-4.233691043630854
 20
12.77131912093918
 30
0.0
 11
-4.233691043630854
 21
15.38220436684083
 31
0.0
  0
LINE
  5
277
330
1F
100
AcDbEntity
  8
0
100
AcDbLine
 10
-4.233691043630854
 20
15.38220436684083
 30
0.0
 11
-4.215559896089865
 21
15.81735190782442
 31
0.0
  0
LINE
  5
278
330
1F
100
AcDbEntity
  8
0
100
AcDbLine
 10
-4.215559896089865
 20
15.81735190782442
 30
0.0
 11
-4.650707437073473
 21
15.79317704443644
 31
0.0
  0
LINE
  5
279
330
1F
100
AcDbEntity
  8
0
100
AcDbLine
 10
-4.650707437073473
 20
15.79317704443644
 30
0.0
 11
-4.650707437073473
 21
16.05910054170421
 31
0.0
  0
LINE
  5
27A
330
1F
100
AcDbEntity
  8
0
100
AcDbLine
 10
-4.650707437073473
 20
16.05910054170421
 30
0.0
 11
-3.701844049095333
 21
16.0711879733982
 31
0.0
  0
LINE
  5
27B
330
1F
100
AcDbEntity
  8
0
100
AcDbLine
 10
-3.701844049095333
 20
16.0711879733982
 30
0.0
 11
-3.266696508111726
 21
16.0651442575512
 31
0.0
  0
LINE
  5
27C
330
1F
100
AcDbEntity
  8
0
100
AcDbLine
 10
-3.290871371499704
 20
15.83548305536541
 30
0.0
 11
-3.47218284690953
 21
15.81433004990094
 31
0.0
  0
LINE
  5
27D
330
1F
100
AcDbEntity
  8
0
100
AcDbLine
 10
-3.47218284690953
 20
15.81433004990094
 30
0.0
 11
-3.593057163849442
 21
15.75087103350749
 31
0.0
  0
LINE
  5
27E
330
1F
100
AcDbEntity
  8
0
100
AcDbLine
 10
-3.593057163849442
 20
15.75087103350749
 30
0.0
 11
-3.664070825051613
 21
15.65719343787908
 31
0.0
  0
LINE
  5
27F
330
1F
100
AcDbEntity
  8
0
100
AcDbLine
 10
-3.664070825051613
 20
15.65719343787908
 30
0.0
 11
-3.695800333248344
 21
15.54538469470967
 31
0.0
  0
LINE
  5
280
330
1F
100
AcDbEntity
  8
0
100
AcDbLine
 10
-3.695800333248344
 20
15.54538469470967
 30
0.0
 11
-3.707887764942323
 21
15.11628086957306
 31
0.0
  0
LINE
  5
281
330
1F
100
AcDbEntity
  8
0
100
AcDbLine
 10
-3.707887764942323
 20
15.11628086957306
 30
0.0
 11
-3.707887764942323
 21
13.95588742695011
 31
0.0
  0
LINE
  5
282
330
1F
100
AcDbEntity
  8
0
100
AcDbLine
 10
-3.707887764942323
 20
13.95588742695011
 30
0.0
 11
-3.441964267674562
 21
13.94379999525612
 31
0.0
  0
LINE
  5
283
330
1F
100
AcDbEntity
  8
0
100
AcDbLine
 10
-3.441964267674562
 20
13.94379999525612
 30
0.0
 11
-3.15299910374014
 21
13.95900371793372
 31
0.0
  0
LINE
  5
284
330
1F
100
AcDbEntity
  8
0
100
AcDbLine
 10
-3.15299910374014
 20
13.95900371793372
 30
0.0
 11
-2.90256262833031
 21
14.0046148859665
 31
0.0
  0
LINE
  5
285
330
1F
100
AcDbEntity
  8
0
100
AcDbLine
 10
-2.90256262833031
 20
14.0046148859665
 30
0.0
 11
-2.69065484144507
 21
14.08063349935448
 31
0.0
  0
LINE
  5
286
330
1F
100
AcDbEntity
  8
0
100
AcDbLine
 10
-2.69065484144507
 20
14.08063349935448
 30
0.0
 11
-2.517275743084401
 21
14.18705955809765
 31
0.0
  0
LINE
  5
287
330
1F
100
AcDbEntity
  8
0
100
AcDbLine
 10
-2.517275743084401
 20
14.18705955809765
 30
0.0
 11
-2.382425333248343
 21
14.32389306219601
 31
0.0
  0
LINE
  5
288
330
1F
100
AcDbEntity
  8
0
100
AcDbLine
 10
-2.382425333248343
 20
14.32389306219601
 30
0.0
 11
-2.286103611936856
 21
14.49113401164956
 31
0.0
  0
LINE
  5
289
330
1F
100
AcDbEntity
  8
0
100
AcDbLine
 10
-2.286103611936856
 20
14.49113401164956
 30
0.0
 11
-2.22831057914996
 21
14.6887824064583
 31
0.0
  0
LINE
  5
28A
330
1F
100
AcDbEntity
  8
0
100
AcDbLine
 10
-2.22831057914996
 20
14.6887824064583
 30
0.0
 11
-2.209046234887693
 21
14.91683824662224
 31
0.0
  0
LINE
  5
28B
330
1F
100
AcDbEntity
  8
0
100
AcDbLine
 10
-2.209046234887693
 20
14.91683824662224
 30
0.0
 11
-2.22566645346692
 21
15.13214562367142
 31
0.0
  0
LINE
  5
28C
330
1F
100
AcDbEntity
  8
0
100
AcDbLine
 10
-2.22566645346692
 20
15.13214562367142
 30
0.0
 11
-2.275527109204619
 21
15.31874535044739
 31
0.0
  0
LINE
  5
28D
330
1F
100
AcDbEntity
  8
0
100
AcDbLine
 10
-2.275527109204619
 20
15.31874535044739
 30
0.0
 11
-2.35862820210079
 21
15.47663742695011
 31
0.0
  0
LINE
  5
28E
330
1F
100
AcDbEntity
  8
0
100
AcDbLine
 10
-2.35862820210079
 20
15.47663742695011
 30
0.0
 11
-2.474969732155454
 21
15.60582185317962
 31
0.0
  0
LINE
  5
28F
330
1F
100
AcDbEntity
  8
0
100
AcDbLine
 10
-2.474969732155454
 20
15.60582185317962
 30
0.0
 11
-2.625684896089868
 21
15.7062986291359
 31
0.0
  0
LINE
  5
290
330
1F
100
AcDbEntity
  8
0
100
AcDbLine
 10
-2.625684896089868
 20
15.7062986291359
 30
0.0
 11
-2.811906890625386
 21
15.77806775481896
 31
0.0
  0
LINE
  5
291
330
1F
100
AcDbEntity
  8
0
100
AcDbLine
 10
-2.811906890625386
 20
15.77806775481896
 30
0.0
 11
-3.290871371499704
 21
15.83548305536541
 31
0.0
  0
LINE
  5
292
330
1F
100
AcDbEntity
  8
0
100
AcDbLine
 10
-17.08232390995432
 20
1.547837258809495
 30
0.0
 11
-17.08232390995432
 21
-17.73152627361774
 31
0.0
  0
LINE
  5
293
330
1F
100
AcDbEntity
  8
0
100
AcDbLine
 10
-12.41066700380957
 20
-27.36605194084679
 30
0.0
 11
-12.03036158645386
 21
-28.53651166294108
 31
0.0
  0
LINE
  5
294
330
1F
100
AcDbEntity
  8
0
100
AcDbLine
 10
6.193257536955833
 20
-28.53651166294104
 30
0.0
 11
6.573562954311568
 21
-27.3660519408467
 31
0.0
  0
LINE
  5
295
330
1F
100
AcDbEntity
  8
0
100
AcDbLine
 10
0.5513545036307522
 20
28.44233738694239
 30
0.0
 11
-0.1587804184350645
 21
28.08689158515151
 31
0.0
  0
LINE
  5
296
330
1F
100
AcDbEntity
  8
0
100
AcDbLine
 10
1.229997860984766
 20
28.85474073206375
 30
0.0
 11
0.5513545036307522
 21
28.44233738694239
 31
0.0
  0
LINE
  5
297
330
1F
100
AcDbEntity
  8
0
100
AcDbLine
 10
-0.8956370231447405
 20
27.79079080898956
 30
0.0
 11
-1.654265942433145
 21
27.55602392809009
 31
0.0
  0
LINE
  5
298
330
1F
100
AcDbEntity
  8
0
100
AcDbLine
 10
-0.1587804184350645
 20
28.08689158515151
 30
0.0
 11
-0.8956370231447405
 21
27.79079080898956
 31
0.0
  0
LINE
  5
299
330
1F
100
AcDbEntity
  8
0
100
AcDbLine
 10
-1.654265942433145
 20
27.55602392809009
 30
0.0
 11
-2.42957156648655
 21
27.38416784044895
 31
0.0
  0
LINE
  5
29A
330
1F
100
AcDbEntity
  8
0
100
AcDbLine
 10
2.474818594482853
 20
29.83897584790506
 30
0.0
 11
1.872591296222143
 21
29.32133156195379
 31
0.0
  0
LINE
  5
29B
330
1F
100
AcDbEntity
  8
0
100
AcDbLine
 10
4.000369546566735
 20
31.66188763733253
 30
0.0
 11
3.542292760839089
 21
31.01319743089692
 31
0.0
  0
LINE
  5
29C
330
1F
100
AcDbEntity
  8
0
100
AcDbLine
 10
3.542292760839089
 20
31.01319743089692
 30
0.0
 11
3.032634674893282
 21
30.40419664191712
 31
0.0
  0
LINE
  5
29D
330
1F
100
AcDbEntity
  8
0
100
AcDbLine
 10
4.749838984838571
 20
33.06067031627104
 30
0.0
 11
4.403788191072941
 21
32.34591009516052
 31
0.0
  0
LINE
  5
29E
330
1F
100
AcDbEntity
  8
0
100
AcDbLine
 10
5.519965015409187
 20
36.12865808053413
 30
0.0
 11
5.552506836156661
 21
36.92211529768617
 31
0.0
  0
LINE
  5
29F
330
1F
100
AcDbEntity
  8
0
100
AcDbLine
 10
5.479338989038787
 20
38.11063466011127
 30
0.0
 11
5.534197575953489
 21
37.5175000070782
 31
0.0
  0
LINE
  5
2A0
330
1F
100
AcDbEntity
  8
0
100
AcDbLine
 10
5.388138394999511
 20
38.69927770375813
 30
0.0
 11
5.479338989038787
 21
38.11063466011127
 31
0.0
  0
LINE
  5
2A1
330
1F
100
AcDbEntity
  8
0
100
AcDbLine
 10
5.260940455822067
 20
39.28120455951937
 30
0.0
 11
5.388138394999511
 21
38.69927770375813
 31
0.0
  0
LINE
  5
2A2
330
1F
100
AcDbEntity
  8
0
100
AcDbLine
 10
5.098225873357643
 20
39.85421603046936
 30
0.0
 11
5.260940455822067
 21
39.28120455951937
 31
0.0
  0
LINE
  5
2A3
330
1F
100
AcDbEntity
  8
0
100
AcDbLine
 10
4.900609572670834
 20
40.41614661238314
 30
0.0
 11
5.098225873357643
 21
39.85421603046936
 31
0.0
  0
LINE
  5
2A4
330
1F
100
AcDbEntity
  8
0
100
AcDbLine
 10
4.668838378137296
 20
40.96487267752996
 30
0.0
 11
4.900609572670834
 21
40.41614661238314
 31
0.0
  0
LINE
  5
2A5
330
1F
100
AcDbEntity
  8
0
100
AcDbLine
 10
4.403788191072941
 20
41.49832050021196
 30
0.0
 11
4.668838378137296
 21
40.96487267752996
 31
0.0
  0
LINE
  5
2A6
330
1F
100
AcDbEntity
  8
0
100
AcDbLine
 10
4.106460679557205
 20
42.01447409371193
 30
0.0
 11
4.403788191072941
 21
41.49832050021196
 31
0.0
  0
LINE
  5
2A7
330
1F
100
AcDbEntity
  8
0
100
AcDbLine
 10
3.777979492967993
 20
42.51138282903852
 30
0.0
 11
4.106460679557205
 21
42.01447409371193
 31
0.0
  0
LINE
  5
2A8
330
1F
100
AcDbEntity
  8
0
100
AcDbLine
 10
3.419586015524238
 20
42.98716880667224
 30
0.0
 11
3.777979492967993
 21
42.51138282903852
 31
0.0
  0
LINE
  5
2A9
330
1F
100
AcDbEntity
  8
0
100
AcDbLine
 10
3.032634674893282
 20
43.44003395345542
 30
0.0
 11
3.419586015524238
 21
42.98716880667224
 31
0.0
  0
LINE
  5
2AA
330
1F
100
AcDbEntity
  8
0
100
AcDbLine
 10
2.618587823585318
 20
43.86826681780493
 30
0.0
 11
3.032634674893282
 21
43.44003395345542
 31
0.0
  0
LINE
  5
2AB
330
1F
100
AcDbEntity
  8
0
100
AcDbLine
 10
2.179010212485343
 20
44.27024903756939
 30
0.0
 11
2.618587823585318
 21
43.86826681780493
 31
0.0
  0
LINE
  5
2AC
330
1F
100
AcDbEntity
  8
0
100
AcDbLine
 10
1.715563077401827
 20
44.6444614560828
 30
0.0
 11
2.179010212485343
 21
44.27024903756939
 31
0.0
  0
LINE
  5
2AD
330
1F
100
AcDbEntity
  8
0
100
AcDbLine
 10
1.229997860984766
 20
44.98948986330894
 30
0.0
 11
1.715563077401827
 21
44.6444614560828
 31
0.0
  0
LINE
  5
2AE
330
1F
100
AcDbEntity
  8
0
100
AcDbLine
 10
0.7241495937374167
 20
45.30403034037005
 30
0.0
 11
1.229997860984766
 21
44.98948986330894
 31
0.0
  0
LINE
  5
2AF
330
1F
100
AcDbEntity
  8
0
100
AcDbLine
 10
0.1999299591352114
 20
45.58689418727238
 30
0.0
 11
0.7241495937374167
 21
45.30403034037005
 31
0.0
  0
LINE
  5
2B0
330
1F
100
AcDbEntity
  8
0
100
AcDbLine
 10
-0.3406799309398858
 20
45.83701241519681
 30
0.0
 11
0.1999299591352114
 21
45.58689418727238
 31
0.0
  0
LINE
  5
2B1
330
1F
100
AcDbEntity
  8
0
100
AcDbLine
 10
-0.8956370231447405
 20
46.05343978638307
 30
0.0
 11
-0.3406799309398858
 21
45.83701241519681
 31
0.0
  0
LINE
  5
2B2
330
1F
100
AcDbEntity
  8
0
100
AcDbLine
 10
-1.462844043708986
 20
46.23535838633764
 30
0.0
 11
-0.8956370231447405
 21
46.05343978638307
 31
0.0
  0
LINE
  5
2B3
330
1F
100
AcDbEntity
  8
0
100
AcDbLine
 10
1.872591296222143
 20
29.32133156195379
 30
0.0
 11
1.229997860984766
 21
28.85474073206375
 31
0.0
  0
LINE
  5
2B4
330
1F
100
AcDbEntity
  8
0
100
AcDbLine
 10
5.552506836156661
 20
36.92211529768617
 30
0.0
 11
5.534197575953489
 21
37.5175000070782
 31
0.0
  0
LINE
  5
2B5
330
1F
100
AcDbEntity
  8
0
100
AcDbLine
 10
-2.040157424376301
 20
46.38208071486815
 30
0.0
 11
-1.462844043708986
 21
46.23535838633764
 31
0.0
  0
LINE
  5
2B6
330
1F
100
AcDbEntity
  8
0
100
AcDbLine
 10
-2.625395403299832
 20
46.49305228425688
 30
0.0
 11
-2.040157424376301
 21
46.38208071486815
 31
0.0
  0
LINE
  5
2B7
330
1F
100
AcDbEntity
  8
0
100
AcDbLine
 10
-3.2163462702772
 20
46.56785371476349
 30
0.0
 11
-2.625395403299832
 21
46.49305228425688
 31
0.0
  0
LINE
  5
2B8
330
1F
100
AcDbEntity
  8
0
100
AcDbLine
 10
-2.42957156648655
 20
27.38416784044895
 30
0.0
 11
-3.2163462702772
 21
27.27637688060915
 31
0.0
  0
LINE
  5
2B9
330
1F
100
AcDbEntity
  8
0
100
AcDbLine
 10
-17.22588803013515
 20
27.27637688060915
 30
0.0
 11
-3.2163462702772
 21
27.27637688060915
 31
0.0
  0
LINE
  5
2BA
330
1F
100
AcDbEntity
  8
0
100
AcDbLine
 10
-3.2163462702772
 20
46.56785371476349
 30
0.0
 11
-17.22588803013515
 21
46.56785371476349
 31
0.0
  0
LINE
  5
2BB
330
1F
100
AcDbEntity
  8
0
100
AcDbLine
 10
5.519965015409187
 20
36.12865808053413
 30
0.0
 11
5.422558132260194
 21
35.34053041025282
 31
0.0
  0
LINE
  5
2BC
330
1F
100
AcDbEntity
  8
0
100
AcDbLine
 10
5.422558132260194
 20
35.34053041025282
 30
0.0
 11
5.260940455822067
 21
34.56302603585306
 31
0.0
  0
LINE
  5
2BD
330
1F
100
AcDbEntity
  8
0
100
AcDbLine
 10
5.260940455822067
 20
34.56302603585306
 30
0.0
 11
5.036197550587873
 21
33.80136735107681
 31
0.0
  0
LINE
  5
2BE
330
1F
100
AcDbEntity
  8
0
100
AcDbLine
 10
5.036197550587873
 20
33.80136735107681
 30
0.0
 11
4.749838984838571
 21
33.06067031627104
 31
0.0
  0
LINE
  5
2BF
330
1F
100
AcDbEntity
  8
0
100
AcDbLine
 10
3.032634674893282
 20
30.40419664191712
 30
0.0
 11
2.474818594482853
 21
29.83897584790506
 31
0.0
  0
LINE
  5
2C0
330
1F
100
AcDbEntity
  8
0
100
AcDbLine
 10
4.403788191072941
 20
32.34591009516052
 30
0.0
 11
4.000369546566735
 21
31.66188763733253
 31
0.0
  0
LINE
  5
2C1
330
1F
100
AcDbEntity
  8
0
100
AcDbLine
 10
-17.22588803013515
 20
46.56785371476349
 30
0.0
 11
-17.22588803013515
 21
42.32211529768632
 31
0.0
  0
LINE
  5
2C2
330
1F
100
AcDbEntity
  8
0
100
AcDbLine
 10
-17.22588803013515
 20
42.32211529768632
 30
0.0
 11
-17.22588803013515
 21
31.52211529768632
 31
0.0
  0
LINE
  5
2C3
330
1F
100
AcDbEntity
  8
0
100
AcDbLine
 10
5.552506836156661
 20
36.92211529768617
 30
0.0
 11
8.312149237884077
 21
36.92211529768617
 31
0.0
  0
LINE
  5
2C4
330
1F
100
AcDbEntity
  8
0
100
AcDbLine
 10
-17.22588803013515
 20
42.32211529768632
 30
0.0
 11
-20.68785076211591
 21
42.32211529768632
 31
0.0
  0
LINE
  5
2C5
330
1F
100
AcDbEntity
  8
0
100
AcDbLine
 10
5.949709034511786
 20
-8.091844507404055
 30
0.0
 11
8.312149237884077
 21
-8.09184450740406
 31
0.0
  0
LINE
  5
2C6
330
1F
100
AcDbEntity
  8
0
100
AcDbLine
 10
-32.12622164779736
 20
47.03869287262151
 30
0.0
 11
-32.12622164779736
 21
-22.96130712737849
 31
0.0
  0
LINE
  5
2C7
330
1F
100
AcDbEntity
  8
0
100
AcDbLine
 10
17.31214923788408
 20
-22.96130712737849
 30
0.0
 11
17.31214923788408
 21
49.0386928726215
 31
0.0
  0
LINE
  5
2C8
330
1F
100
AcDbEntity
  8
0
100
AcDbLine
 10
-32.12622164779736
 20
49.0386928726215
 30
0.0
 11
-32.12622164779736
 21
47.03869287262151
 31
0.0
  0
LINE
  5
2C9
330
1F
100
AcDbEntity
  8
0
100
AcDbLine
 10
-32.12622164779736
 20
49.0386928726215
 30
0.0
 11
-29.56287104855665
 21
53.54038043019927
 31
0.0
  0
LINE
  5
2CA
330
1F
100
AcDbEntity
  8
0
100
AcDbLine
 10
-29.56287104855665
 20
53.54038043019927
 30
0.0
 11
-26.18962534686379
 21
57.4719412648665
 31
0.0
  0
LINE
  5
2CB
330
1F
100
AcDbEntity
  8
0
100
AcDbLine
 10
-26.18962534686379
 20
57.4719412648665
 30
0.0
 11
-22.12979179755502
 21
60.68965920038934
 31
0.0
  0
LINE
  5
2CC
330
1F
100
AcDbEntity
  8
0
100
AcDbLine
 10
-22.12979179755502
 20
60.68965920038934
 30
0.0
 11
-17.53177551971372
 21
63.07591221911657
 31
0.0
  0
LINE
  5
2CD
330
1F
100
AcDbEntity
  8
0
100
AcDbLine
 10
-17.53177551971372
 20
63.07591221911657
 30
0.0
 11
-12.56365462417191
 21
64.5434720741001
 31
0.0
  0
LINE
  5
2CE
330
1F
100
AcDbEntity
  8
0
100
AcDbLine
 10
-12.56365462417191
 20
64.5434720741001
 30
0.0
 11
-7.407036204956639
 21
65.0386928726215
 31
0.0
  0
LINE
  5
2CF
330
1F
100
AcDbEntity
  8
0
100
AcDbLine
 10
-7.407036204956639
 20
65.0386928726215
 30
0.0
 11
-2.250417785741365
 21
64.5434720741001
 31
0.0
  0
LINE
  5
2D0
330
1F
100
AcDbEntity
  8
0
100
AcDbLine
 10
-2.250417785741365
 20
64.5434720741001
 30
0.0
 11
2.717703109800445
 21
63.07591221911657
 31
0.0
  0
LINE
  5
2D1
330
1F
100
AcDbEntity
  8
0
100
AcDbLine
 10
2.717703109800445
 20
63.07591221911657
 30
0.0
 11
7.315719387641765
 21
60.68965920038934
 31
0.0
  0
LINE
  5
2D2
330
1F
100
AcDbEntity
  8
0
100
AcDbLine
 10
7.315719387641765
 20
60.68965920038934
 30
0.0
 11
11.37555293695051
 21
57.47194126486648
 31
0.0
  0
LINE
  5
2D3
330
1F
100
AcDbEntity
  8
0
100
AcDbLine
 10
11.37555293695051
 20
57.47194126486648
 30
0.0
 11
14.74879863864337
 21
53.54038043019927
 31
0.0
  0
LINE
  5
2D4
330
1F
100
AcDbEntity
  8
0
100
AcDbLine
 10
14.74879863864337
 20
53.54038043019927
 30
0.0
 11
17.31214923788408
 21
49.0386928726215
 31
0.0
  0
LINE
  5
2D5
330
1F
100
AcDbEntity
  8
0
100
AcDbLine
 10
-2.2504177857415
 20
-38.46608632885704
 30
0.0
 11
-7.407036204956617
 21
-38.9613071273786
 31
0.0
  0
LINE
  5
2D6
330
1F
100
AcDbEntity
  8
0
100
AcDbLine
 10
17.31214923788408
 20
-22.96130712737849
 30
0.0
 11
14.74879863864323
 21
-27.46299468495644
 31
0.0
  0
LINE
  5
2D7
330
1F
100
AcDbEntity
  8
0
100
AcDbLine
 10
14.74879863864323
 20
-27.46299468495644
 30
0.0
 11
11.37555293695063
 21
-31.39455551962335
 31
0.0
  0
LINE
  5
2D8
330
1F
100
AcDbEntity
  8
0
100
AcDbLine
 10
11.37555293695063
 20
-31.39455551962335
 30
0.0
 11
7.315719387641697
 21
-34.61227345514627
 31
0.0
  0
LINE
  5
2D9
330
1F
100
AcDbEntity
  8
0
100
AcDbLine
 10
7.315719387641697
 20
-34.61227345514627
 30
0.0
 11
2.717703109800378
 21
-36.9985264738736
 31
0.0
  0
LINE
  5
2DA
330
1F
100
AcDbEntity
  8
0
100
AcDbLine
 10
2.717703109800377
 20
-36.9985264738736
 30
0.0
 11
-2.2504177857415
 21
-38.46608632885704
 31
0.0
  0
LINE
  5
2DB
330
1F
100
AcDbEntity
  8
0
100
AcDbLine
 10
-7.407036204956617
 20
-38.9613071273786
 30
0.0
 11
-12.56365462417189
 21
-38.46608632885673
 31
0.0
  0
LINE
  5
2DC
330
1F
100
AcDbEntity
  8
0
100
AcDbLine
 10
-12.56365462417189
 20
-38.46608632885673
 30
0.0
 11
-17.53177551971384
 21
-36.99852647387365
 31
0.0
  0
LINE
  5
2DD
330
1F
100
AcDbEntity
  8
0
100
AcDbLine
 10
-17.53177551971384
 20
-36.99852647387365
 30
0.0
 11
-22.12979179755513
 21
-34.61227345514627
 31
0.0
  0
LINE
  5
2DE
330
1F
100
AcDbEntity
  8
0
100
AcDbLine
 10
-22.12979179755513
 20
-34.61227345514627
 30
0.0
 11
-26.18962534686384
 21
-31.39455551962353
 31
0.0
  0
LINE
  5
2DF
330
1F
100
AcDbEntity
  8
0
100
AcDbLine
 10
-26.18962534686384
 20
-31.39455551962353
 30
0.0
 11
-29.56287104855676
 21
-27.46299468495617
 31
0.0
  0
LINE
  5
2E0
330
1F
100
AcDbEntity
  8
0
100
AcDbLine
 10
-29.56287104855676
 20
-27.46299468495617
 30
0.0
 11
-32.12622164779736
 21
-22.96130712737849
 31
0.0
  0
LINE
  5
2E1
330
1F
100
AcDbEntity
  8
0
100
AcDbLine
 10
-17.22588803013515
 20
31.52211529768632
 30
0.0
 11
-17.22588803013515
 21
27.27637688060915
 31
0.0
  0
LINE
  5
2E2
330
1F
100
AcDbEntity
  8
0
100
AcDbLine
 10
-17.22588803013515
 20
31.52211529768632
 30
0.0
 11
-20.68785076211591
 21
31.52211529768632
 31
0.0
  0
LINE
  5
2E3
330
1F
100
AcDbEntity
  8
0
100
AcDbLine
 10
-17.26425891581662
 20
19.31392392984748
 30
0.0
 11
-20.72622164779738
 21
19.31392392984748
 31
0.0
  0
LINE
  5
2E4
330
1F
100
AcDbEntity
  8
0
100
AcDbLine
 10
0.8739533025476887
 20
6.829463613421527
 30
0.0
 11
0.5783306614459025
 21
6.564635715754007
 31
0.0
  0
LINE
  5
2E5
330
1F
100
AcDbEntity
  8
0
100
AcDbLine
 10
-4.813638025682399
 20
23.5478372588095
 30
0.0
 11
-5.371305565876624
 21
23.5478372588095
 31
0.0
  0
LINE
  5
2E6
330
1F
100
AcDbEntity
  8
0
100
AcDbLine
 10
0.5783306614459025
 20
6.564635715754007
 30
0.0
 11
0.2721041485336464
 21
6.31214436123928
 31
0.0
  0
LINE
  5
2E7
330
1F
100
AcDbEntity
  8
0
100
AcDbLine
 10
0.2721041485336464
 20
6.31214436123928
 30
0.0
 11
-0.0442117994194147
 21
6.07241371575236
 31
0.0
  0
LINE
  5
2E8
330
1F
100
AcDbEntity
  8
0
100
AcDbLine
 10
-0.0442117994194147
 20
6.07241371575236
 30
0.0
 11
-0.3700857961761407
 21
5.845846508167418
 31
0.0
  0
LINE
  5
2E9
330
1F
100
AcDbEntity
  8
0
100
AcDbLine
 10
-0.3700857961761407
 20
5.845846508167418
 30
0.0
 11
-0.704970398719367
 21
5.632823353805118
 31
0.0
  0
LINE
  5
2EA
330
1F
100
AcDbEntity
  8
0
100
AcDbLine
 10
-0.704970398719367
 20
5.632823353805118
 30
0.0
 11
-1.048303026913612
 21
5.433702115027841
 31
0.0
  0
LINE
  5
2EB
330
1F
100
AcDbEntity
  8
0
100
AcDbLine
 10
-1.048303026913612
 20
5.433702115027841
 30
0.0
 11
-1.399506908596374
 21
5.248817300058985
 31
0.0
  0
LINE
  5
2EC
330
1F
100
AcDbEntity
  8
0
100
AcDbLine
 10
-1.399506908596374
 20
5.248817300058985
 30
0.0
 11
-1.757992048509913
 21
5.078479501035395
 31
0.0
  0
LINE
  5
2ED
330
1F
100
AcDbEntity
  8
0
100
AcDbLine
 10
-1.757992048509913
 20
5.078479501035395
 30
0.0
 11
-2.123156219448131
 21
4.922974872236232
 31
0.0
  0
LINE
  5
2EE
330
1F
100
AcDbEntity
  8
0
100
AcDbLine
 10
-2.123156219448131
 20
4.922974872236232
 30
0.0
 11
-2.494385973951446
 21
4.78256464936595
 31
0.0
  0
LINE
  5
2EF
330
1F
100
AcDbEntity
  8
0
100
AcDbLine
 10
-2.494385973951446
 20
4.78256464936595
 30
0.0
 11
-2.871057674850429
 21
4.657484710699288
 31
0.0
  0
LINE
  5
2F0
330
1F
100
AcDbEntity
  8
0
100
AcDbLine
 10
-2.871057674850429
 20
4.657484710699288
 30
0.0
 11
-3.252538542928447
 21
4.547945180823299
 31
0.0
  0
LINE
  5
2F1
330
1F
100
AcDbEntity
  8
0
100
AcDbLine
 10
-3.252538542928447
 20
4.547945180823299
 30
0.0
 11
-3.638187719941185
 21
4.454130077644421
 31
0.0
  0
LINE
  5
2F2
330
1F
100
AcDbEntity
  8
0
100
AcDbLine
 10
-3.638187719941185
 20
4.454130077644421
 30
0.0
 11
-4.027357345208849
 21
4.376197003253509
 31
0.0
  0
LINE
  5
2F3
330
1F
100
AcDbEntity
  8
0
100
AcDbLine
 10
-4.027357345208849
 20
4.376197003253509
 30
0.0
 11
-4.419393643972088
 21
4.314276879165675
 31
0.0
  0
LINE
  5
2F4
330
1F
100
AcDbEntity
  8
0
100
AcDbLine
 10
-4.419393643972088
 20
4.314276879165675
 30
0.0
 11
-4.813638025682399
 21
4.268473726382252
 31
0.0
  0
LINE
  5
2F5
330
1F
100
AcDbEntity
  8
0
100
AcDbLine
 10
-16.54890278455118
 20
4.268473726382252
 30
0.0
 11
-16.01548165914804
 21
4.268473726382252
 31
0.0
  0
LINE
  5
2F6
330
1F
100
AcDbEntity
  8
0
100
AcDbLine
 10
-16.01548165914804
 20
4.268473726382252
 30
0.0
 11
-15.48206053374488
 21
4.268473726382252
 31
0.0
  0
LINE
  5
2F7
330
1F
100
AcDbEntity
  8
0
100
AcDbLine
 10
-15.48206053374488
 20
4.268473726382252
 30
0.0
 11
-14.94863940834182
 21
4.268473726382252
 31
0.0
  0
LINE
  5
2F8
330
1F
100
AcDbEntity
  8
0
100
AcDbLine
 10
-14.94863940834182
 20
4.268473726382252
 30
0.0
 11
-14.41521828293869
 21
4.268473726382252
 31
0.0
  0
LINE
  5
2F9
330
1F
100
AcDbEntity
  8
0
100
AcDbLine
 10
-14.41521828293869
 20
4.268473726382252
 30
0.0
 11
-13.88179715753555
 21
4.268473726382252
 31
0.0
  0
LINE
  5
2FA
330
1F
100
AcDbEntity
  8
0
100
AcDbLine
 10
-13.88179715753555
 20
4.268473726382252
 30
0.0
 11
-13.34837603213251
 21
4.268473726382252
 31
0.0
  0
LINE
  5
2FB
330
1F
100
AcDbEntity
  8
0
100
AcDbLine
 10
-13.34837603213251
 20
4.268473726382252
 30
0.0
 11
-12.81495490672935
 21
4.268473726382252
 31
0.0
  0
LINE
  5
2FC
330
1F
100
AcDbEntity
  8
0
100
AcDbLine
 10
-12.81495490672935
 20
4.268473726382252
 30
0.0
 11
-12.28153378132619
 21
4.268473726382252
 31
0.0
  0
LINE
  5
2FD
330
1F
100
AcDbEntity
  8
0
100
AcDbLine
 10
-12.28153378132619
 20
4.268473726382252
 30
0.0
 11
-11.74811265592307
 21
4.268473726382252
 31
0.0
  0
LINE
  5
2FE
330
1F
100
AcDbEntity
  8
0
100
AcDbLine
 10
-11.74811265592307
 20
4.268473726382252
 30
0.0
 11
-11.21469153051986
 21
4.268473726382252
 31
0.0
  0
LINE
  5
2FF
330
1F
100
AcDbEntity
  8
0
100
AcDbLine
 10
-11.21469153051986
 20
4.268473726382252
 30
0.0
 11
-10.68127040511678
 21
4.268473726382252
 31
0.0
  0
LINE
  5
300
330
1F
100
AcDbEntity
  8
0
100
AcDbLine
 10
-10.68127040511678
 20
4.268473726382252
 30
0.0
 11
-10.14784927971367
 21
4.268473726382252
 31
0.0
  0
LINE
  5
301
330
1F
100
AcDbEntity
  8
0
100
AcDbLine
 10
-10.14784927971367
 20
4.268473726382252
 30
0.0
 11
-9.614428154310556
 21
4.268473726382252
 31
0.0
  0
LINE
  5
302
330
1F
100
AcDbEntity
  8
0
100
AcDbLine
 10
-9.614428154310556
 20
4.268473726382252
 30
0.0
 11
-9.081007028907418
 21
4.268473726382252
 31
0.0
  0
LINE
  5
303
330
1F
100
AcDbEntity
  8
0
100
AcDbLine
 10
-9.081007028907418
 20
4.268473726382252
 30
0.0
 11
-8.547585903504357
 21
4.268473726382252
 31
0.0
  0
LINE
  5
304
330
1F
100
AcDbEntity
  8
0
100
AcDbLine
 10
-8.547585903504357
 20
4.268473726382252
 30
0.0
 11
-8.01416477810127
 21
4.268473726382252
 31
0.0
  0
LINE
  5
305
330
1F
100
AcDbEntity
  8
0
100
AcDbLine
 10
-8.01416477810127
 20
4.268473726382252
 30
0.0
 11
-7.480743652698084
 21
4.268473726382252
 31
0.0
  0
LINE
  5
306
330
1F
100
AcDbEntity
  8
0
100
AcDbLine
 10
-7.480743652698084
 20
4.268473726382252
 30
0.0
 11
-6.947322527294946
 21
4.268473726382252
 31
0.0
  0
LINE
  5
307
330
1F
100
AcDbEntity
  8
0
100
AcDbLine
 10
-6.947322527294946
 20
4.268473726382252
 30
0.0
 11
-6.413901401891784
 21
4.268473726382252
 31
0.0
  0
LINE
  5
308
330
1F
100
AcDbEntity
  8
0
100
AcDbLine
 10
-6.413901401891784
 20
4.268473726382252
 30
0.0
 11
-5.880480276488622
 21
4.268473726382252
 31
0.0
  0
LINE
  5
309
330
1F
100
AcDbEntity
  8
0
100
AcDbLine
 10
-5.880480276488622
 20
4.268473726382252
 30
0.0
 11
-5.61376971378708
 21
4.268473726382252
 31
0.0
  0
LINE
  5
30A
330
1F
100
AcDbEntity
  8
0
100
AcDbLine
 10
-5.371305565876624
 20
23.5478372588095
 30
0.0
 11
-5.928973106070724
 21
23.5478372588095
 31
0.0
  0
LINE
  5
30B
330
1F
100
AcDbEntity
  8
0
100
AcDbLine
 10
-5.928973106070724
 20
23.5478372588095
 30
0.0
 11
-6.486640646264923
 21
23.54783725880946
 31
0.0
  0
LINE
  5
30C
330
1F
100
AcDbEntity
  8
0
100
AcDbLine
 10
-6.486640646264923
 20
23.54783725880946
 30
0.0
 11
-7.044308186459199
 21
23.54783725880946
 31
0.0
  0
LINE
  5
30D
330
1F
100
AcDbEntity
  8
0
100
AcDbLine
 10
-7.044308186459199
 20
23.54783725880946
 30
0.0
 11
-7.601975726653272
 21
23.5478372588095
 31
0.0
  0
LINE
  5
30E
330
1F
100
AcDbEntity
  8
0
100
AcDbLine
 10
-7.601975726653272
 20
23.5478372588095
 30
0.0
 11
-8.159643266847548
 21
23.5478372588095
 31
0.0
  0
LINE
  5
30F
330
1F
100
AcDbEntity
  8
0
100
AcDbLine
 10
-8.159643266847548
 20
23.5478372588095
 30
0.0
 11
-8.717310807041699
 21
23.5478372588095
 31
0.0
  0
LINE
  5
310
330
1F
100
AcDbEntity
  8
0
100
AcDbLine
 10
-8.717310807041699
 20
23.5478372588095
 30
0.0
 11
-9.27497834723577
 21
23.5478372588095
 31
0.0
  0
LINE
  5
311
330
1F
100
AcDbEntity
  8
0
100
AcDbLine
 10
-9.27497834723577
 20
23.5478372588095
 30
0.0
 11
-9.832645887429997
 21
23.5478372588095
 31
0.0
  0
LINE
  5
312
330
1F
100
AcDbEntity
  8
0
100
AcDbLine
 10
-9.832645887429997
 20
23.5478372588095
 30
0.0
 11
-10.39031342762425
 21
23.5478372588095
 31
0.0
  0
LINE
  5
313
330
1F
100
AcDbEntity
  8
0
100
AcDbLine
 10
-10.39031342762425
 20
23.5478372588095
 30
0.0
 11
-10.94798096781835
 21
23.5478372588095
 31
0.0
  0
LINE
  5
314
330
1F
100
AcDbEntity
  8
0
100
AcDbLine
 10
-10.94798096781835
 20
23.5478372588095
 30
0.0
 11
-11.50564850801257
 21
23.5478372588095
 31
0.0
  0
LINE
  5
315
330
1F
100
AcDbEntity
  8
0
100
AcDbLine
 10
-11.50564850801257
 20
23.5478372588095
 30
0.0
 11
-12.06331604820677
 21
23.5478372588095
 31
0.0
  0
LINE
  5
316
330
1F
100
AcDbEntity
  8
0
100
AcDbLine
 10
-12.06331604820677
 20
23.5478372588095
 30
0.0
 11
-12.62098358840092
 21
23.5478372588095
 31
0.0
  0
LINE
  5
317
330
1F
100
AcDbEntity
  8
0
100
AcDbLine
 10
-12.62098358840092
 20
23.5478372588095
 30
0.0
 11
-13.17865112859509
 21
23.5478372588095
 31
0.0
  0
LINE
  5
318
330
1F
100
AcDbEntity
  8
0
100
AcDbLine
 10
-13.17865112859509
 20
23.5478372588095
 30
0.0
 11
-13.73631866878929
 21
23.5478372588095
 31
0.0
  0
LINE
  5
319
330
1F
100
AcDbEntity
  8
0
100
AcDbLine
 10
-13.73631866878929
 20
23.5478372588095
 30
0.0
 11
-14.29398620898342
 21
23.5478372588095
 31
0.0
  0
LINE
  5
31A
330
1F
100
AcDbEntity
  8
0
100
AcDbLine
 10
-14.29398620898342
 20
23.5478372588095
 30
0.0
 11
-14.85165374917762
 21
23.5478372588095
 31
0.0
  0
LINE
  5
31B
330
1F
100
AcDbEntity
  8
0
100
AcDbLine
 10
-14.85165374917762
 20
23.5478372588095
 30
0.0
 11
-15.40932128937179
 21
23.54783725880946
 31
0.0
  0
LINE
  5
31C
330
1F
100
AcDbEntity
  8
0
100
AcDbLine
 10
-15.40932128937179
 20
23.54783725880946
 30
0.0
 11
-15.96698882956594
 21
23.5478372588095
 31
0.0
  0
LINE
  5
31D
330
1F
100
AcDbEntity
  8
0
100
AcDbLine
 10
-15.96698882956594
 20
23.5478372588095
 30
0.0
 11
-16.52465636976014
 21
23.5478372588095
 31
0.0
  0
LINE
  5
31E
330
1F
100
AcDbEntity
  8
0
100
AcDbLine
 10
-16.52465636976014
 20
23.5478372588095
 30
0.0
 11
-17.08232390995432
 21
23.5478372588095
 31
0.0
  0
LINE
  5
31F
330
1F
100
AcDbEntity
  8
0
100
AcDbLine
 10
-4.449650162274432
 20
23.50613077256445
 30
0.0
 11
-4.813638025682399
 21
23.5478372588095
 31
0.0
  0
LINE
  5
320
330
1F
100
AcDbEntity
  8
0
100
AcDbLine
 10
-4.813638025682399
 20
4.268473726382252
 30
0.0
 11
-5.347059151085536
 21
4.268473726382252
 31
0.0
  0
LINE
  5
321
330
1F
100
AcDbEntity
  8
0
100
AcDbLine
 10
-5.347059151085536
 20
4.268473726382252
 30
0.0
 11
-5.61376971378708
 21
4.268473726382252
 31
0.0
  0
LINE
  5
322
330
1F
100
AcDbEntity
  8
0
100
AcDbLine
 10
-12.97282029258868
 20
8.986959264815027
 30
0.0
 11
-12.76206627758453
 21
9.36679489293884
 31
0.0
  0
LINE
  5
323
330
1F
100
AcDbEntity
  8
0
100
AcDbLine
 10
-12.6724581678646
 20
18.23588061202363
 30
0.0
 11
-12.87946266640265
 21
18.61810167992029
 31
0.0
  0
LINE
  5
324
330
1F
100
AcDbEntity
  8
0
100
AcDbLine
 10
3.941575271632087
 20
13.51134268633026
 30
0.0
 11
3.949709034511789
 21
13.90815549259593
 31
0.0
  0
LINE
  5
325
330
1F
100
AcDbEntity
  8
0
100
AcDbLine
 10
3.949709034511789
 20
13.90815549259593
 30
0.0
 11
3.942778347442375
 21
14.27445941187597
 31
0.0
  0
LINE
  5
326
330
1F
100
AcDbEntity
  8
0
100
AcDbLine
 10
3.942778347442375
 20
14.27445941187597
 30
0.0
 11
3.941575271632087
 21
14.39614268633029
 31
0.0
  0
LINE
  5
327
330
1F
100
AcDbEntity
  8
0
100
AcDbLine
 10
-17.08232390995432
 20
23.5478372588095
 30
0.0
 11
-15.57099806829723
 21
22.38616462522522
 31
0.0
  0
LINE
  5
328
330
1F
100
AcDbEntity
  8
0
100
AcDbLine
 10
-15.57099806829723
 20
22.38616462522522
 30
0.0
 11
-14.2730272897712
 21
20.99014852024224
 31
0.0
  0
LINE
  5
329
330
1F
100
AcDbEntity
  8
0
100
AcDbLine
 10
-14.2730272897712
 20
20.99014852024224
 30
0.0
 11
-13.22428921655095
 21
19.39837668952736
 31
0.0
  0
LINE
  5
32A
330
1F
100
AcDbEntity
  8
0
100
AcDbLine
 10
-13.22428921655095
 20
19.39837668952736
 30
0.0
 11
-12.87946266640265
 21
18.61810167992029
 31
0.0
  0
LINE
  5
32B
330
1F
100
AcDbEntity
  8
0
100
AcDbLine
 10
-12.97282029258868
 20
8.986959264815027
 30
0.0
 11
-13.22428921655095
 21
8.417934295664471
 31
0.0
  0
LINE
  5
32C
330
1F
100
AcDbEntity
  8
0
100
AcDbLine
 10
-13.22428921655095
 20
8.417934295664471
 30
0.0
 11
-14.2730272897712
 21
6.826162464949541
 31
0.0
  0
LINE
  5
32D
330
1F
100
AcDbEntity
  8
0
100
AcDbLine
 10
-14.2730272897712
 20
6.826162464949541
 30
0.0
 11
-15.57099806829723
 21
5.43014635996659
 31
0.0
  0
LINE
  5
32E
330
1F
100
AcDbEntity
  8
0
100
AcDbLine
 10
-15.57099806829723
 20
5.43014635996659
 30
0.0
 11
-17.08232390995432
 21
4.268473726382252
 31
0.0
  0
LINE
  5
32F
330
1F
100
AcDbEntity
  8
0
100
AcDbLine
 10
-17.08232390995432
 20
4.268473726382252
 30
0.0
 11
-16.54890278455118
 21
4.268473726382252
 31
0.0
  0
LINE
  5
330
330
1F
100
AcDbEntity
  8
0
100
AcDbLine
 10
3.917187647083172
 20
13.11519649477477
 30
0.0
 11
3.876587130180998
 21
12.72038241277889
 31
0.0
  0
LINE
  5
331
330
1F
100
AcDbEntity
  8
0
100
AcDbLine
 10
3.876587130180998
 20
12.72038241277889
 30
0.0
 11
3.819841926642311
 21
12.32756369735101
 31
0.0
  0
LINE
  5
332
330
1F
100
AcDbEntity
  8
0
100
AcDbLine
 10
3.819841926642311
 20
12.32756369735101
 30
0.0
 11
3.74704736400384
 21
11.93740025343901
 31
0.0
  0
LINE
  5
333
330
1F
100
AcDbEntity
  8
0
100
AcDbLine
 10
3.74704736400384
 20
11.93740025343901
 30
0.0
 11
3.658325731479847
 21
11.55054752534042
 31
0.0
  0
LINE
  5
334
330
1F
100
AcDbEntity
  8
0
100
AcDbLine
 10
3.658325731479847
 20
11.55054752534042
 30
0.0
 11
3.553826074525711
 21
11.16765539560734
 31
0.0
  0
LINE
  5
335
330
1F
100
AcDbEntity
  8
0
100
AcDbLine
 10
-12.6724581678646
 20
18.23588061202363
 30
0.0
 11
-12.5163980113055
 21
17.83129132151972
 31
0.0
  0
LINE
  5
336
330
1F
100
AcDbEntity
  8
0
100
AcDbLine
 10
-12.5163980113055
 20
17.83129132151972
 30
0.0
 11
-12.37574913828041
 21
17.42108995514897
 31
0.0
  0
LINE
  5
337
330
1F
100
AcDbEntity
  8
0
100
AcDbLine
 10
-12.37574913828041
 20
17.42108995514897
 30
0.0
 11
-12.25071274808005
 21
17.00586330910936
 31
0.0
  0
LINE
  5
338
330
1F
100
AcDbEntity
  8
0
100
AcDbLine
 10
-12.25071274808005
 20
17.00586330910936
 30
0.0
 11
-12.14146770621865
 21
16.58620536829994
 31
0.0
  0
LINE
  5
339
330
1F
100
AcDbEntity
  8
0
100
AcDbLine
 10
-12.14146770621865
 20
16.58620536829994
 30
0.0
 11
-12.04817028856591
 21
16.16271645662095
 31
0.0
  0
LINE
  5
33A
330
1F
100
AcDbEntity
  8
0
100
AcDbLine
 10
-12.04817028856591
 20
16.16271645662095
 30
0.0
 11
-11.97095395779264
 21
15.73600237820592
 31
0.0
  0
LINE
  5
33B
330
1F
100
AcDbEntity
  8
0
100
AcDbLine
 10
-11.97095395779264
 20
15.73600237820592
 30
0.0
 11
-11.90992917245171
 21
15.306673550814
 31
0.0
  0
LINE
  5
33C
330
1F
100
AcDbEntity
  8
0
100
AcDbLine
 10
-11.90992917245171
 20
15.306673550814
 30
0.0
 11
-11.8651832289663
 21
14.87534413262265
 31
0.0
  0
LINE
  5
33D
330
1F
100
AcDbEntity
  8
0
100
AcDbLine
 10
-11.8651832289663
 20
14.87534413262265
 30
0.0
 11
-11.83678013675136
 21
14.44263114367003
 31
0.0
  0
LINE
  5
33E
330
1F
100
AcDbEntity
  8
0
100
AcDbLine
 10
-11.83678013675136
 20
14.44263114367003
 30
0.0
 11
-11.82476052664806
 21
14.00915358320278
 31
0.0
  0
LINE
  5
33F
330
1F
100
AcDbEntity
  8
0
100
AcDbLine
 10
-11.82476052664806
 20
14.00915358320278
 30
0.0
 11
-11.82914159280068
 21
13.57553154419295
 31
0.0
  0
LINE
  5
340
330
1F
100
AcDbEntity
  8
0
100
AcDbLine
 10
-11.82914159280068
 20
13.57553154419295
 30
0.0
 11
-11.84991706806054
 21
13.14238532629019
 31
0.0
  0
LINE
  5
341
330
1F
100
AcDbEntity
  8
0
100
AcDbLine
 10
-11.84991706806054
 20
13.14238532629019
 30
0.0
 11
-11.88705723295107
 21
12.71033454847866
 31
0.0
  0
LINE
  5
342
330
1F
100
AcDbEntity
  8
0
100
AcDbLine
 10
-11.88705723295107
 20
12.71033454847866
 30
0.0
 11
-11.94050895818181
 21
12.27999726270677
 31
0.0
  0
LINE
  5
343
330
1F
100
AcDbEntity
  8
0
100
AcDbLine
 10
-11.94050895818181
 20
12.27999726270677
 30
0.0
 11
-12.01019578065022
 21
11.85198906975956
 31
0.0
  0
LINE
  5
344
330
1F
100
AcDbEntity
  8
0
100
AcDbLine
 10
-12.01019578065022
 20
11.85198906975956
 30
0.0
 11
-12.09601801282267
 21
11.42692223863701
 31
0.0
  0
LINE
  5
345
330
1F
100
AcDbEntity
  8
0
100
AcDbLine
 10
-12.09601801282267
 20
11.42692223863701
 30
0.0
 11
-12.19785288533834
 21
11.00540483069826
 31
0.0
  0
LINE
  5
346
330
1F
100
AcDbEntity
  8
0
100
AcDbLine
 10
-12.19785288533834
 20
11.00540483069826
 30
0.0
 11
-12.31555472263184
 21
10.58803982982556
 31
0.0
  0
LINE
  5
347
330
1F
100
AcDbEntity
  8
0
100
AcDbLine
 10
-12.31555472263184
 20
10.58803982982556
 30
0.0
 11
-12.45377236667431
 21
10.16146315729405
 31
0.0
  0
LINE
  5
348
330
1F
100
AcDbEntity
  8
0
100
AcDbLine
 10
-12.45377236667431
 20
10.16146315729405
 30
0.0
 11
-12.597863341076
 21
9.768148430481077
 31
0.0
  0
LINE
  5
349
330
1F
100
AcDbEntity
  8
0
100
AcDbLine
 10
-12.597863341076
 20
9.768148430481077
 30
0.0
 11
-12.76206627758453
 21
9.36679489293884
 31
0.0
  0
LINE
  5
34A
330
1F
100
AcDbEntity
  8
0
100
AcDbLine
 10
-4.449650162274432
 20
23.50613077256445
 30
0.0
 11
-4.087500470819251
 21
23.45068533377953
 31
0.0
  0
LINE
  5
34B
330
1F
100
AcDbEntity
  8
0
100
AcDbLine
 10
-4.087500470819251
 20
23.45068533377953
 30
0.0
 11
-3.727707347882445
 21
23.38158030942854
 31
0.0
  0
LINE
  5
34C
330
1F
100
AcDbEntity
  8
0
100
AcDbLine
 10
-3.727707347882445
 20
23.38158030942854
 30
0.0
 11
-3.370785816736696
 21
23.29891461940048
 31
0.0
  0
LINE
  5
34D
330
1F
100
AcDbEntity
  8
0
100
AcDbLine
 10
-3.370785816736696
 20
23.29891461940048
 30
0.0
 11
-3.017246790135563
 21
23.20280659490164
 31
0.0
  0
LINE
  5
34E
330
1F
100
AcDbEntity
  8
0
100
AcDbLine
 10
-3.017246790135563
 20
23.20280659490164
 30
0.0
 11
-2.667596338970371
 21
23.09339380907101
 31
0.0
  0
LINE
  5
34F
330
1F
100
AcDbEntity
  8
0
100
AcDbLine
 10
-2.667596338970371
 20
23.09339380907101
 30
0.0
 11
-2.322334967859769
 21
22.97083288005223
 31
0.0
  0
LINE
  5
350
330
1F
100
AcDbEntity
  8
0
100
AcDbLine
 10
-2.322334967859769
 20
22.97083288005223
 30
0.0
 11
-1.981956898704728
 21
22.83529924680374
 31
0.0
  0
LINE
  5
351
330
1F
100
AcDbEntity
  8
0
100
AcDbLine
 10
-1.981956898704728
 20
22.83529924680374
 30
0.0
 11
-1.646949363239416
 21
22.68698691796832
 31
0.0
  0
LINE
  5
352
330
1F
100
AcDbEntity
  8
0
100
AcDbLine
 10
-1.646949363239416
 20
22.68698691796832
 30
0.0
 11
-1.317791905585855
 21
22.52610819415994
 31
0.0
  0
LINE
  5
353
330
1F
100
AcDbEntity
  8
0
100
AcDbLine
 10
-1.317791905585855
 20
22.52610819415994
 30
0.0
 11
-0.9949556958144359
 21
22.35289336406833
 31
0.0
  0
LINE
  5
354
330
1F
100
AcDbEntity
  8
0
100
AcDbLine
 10
-0.9949556958144359
 20
22.35289336406833
 30
0.0
 11
-0.678902855491133
 21
22.16759037481368
 31
0.0
  0
LINE
  5
355
330
1F
100
AcDbEntity
  8
0
100
AcDbLine
 10
-0.678902855491133
 20
22.16759037481368
 30
0.0
 11
-0.3700857961761407
 21
21.97046447702436
 31
0.0
  0
LINE
  5
356
330
1F
100
AcDbEntity
  8
0
100
AcDbLine
 10
-0.3700857961761407
 20
21.97046447702436
 30
0.0
 11
-0.0689465718233946
 21
21.76179784514612
 31
0.0
  0
LINE
  5
357
330
1F
100
AcDbEntity
  8
0
100
AcDbLine
 10
-0.0689465718233946
 20
21.76179784514612
 30
0.0
 11
0.2240837539948906
 21
21.54188917352529
 31
0.0
  0
LINE
  5
358
330
1F
100
AcDbEntity
  8
0
100
AcDbLine
 10
0.2240837539948906
 20
21.54188917352529
 30
0.0
 11
0.5085857251304817
 21
21.3110532488447
 31
0.0
  0
LINE
  5
359
330
1F
100
AcDbEntity
  8
0
100
AcDbLine
 10
0.5085857251304817
 20
21.3110532488447
 30
0.0
 11
0.784152093287581
 21
21.06962049952538
 31
0.0
  0
LINE
  5
35A
330
1F
100
AcDbEntity
  8
0
100
AcDbLine
 10
0.784152093287581
 20
21.06962049952538
 30
0.0
 11
1.050388400974353
 21
20.81793652273608
 31
0.0
  0
LINE
  5
35B
330
1F
100
AcDbEntity
  8
0
100
AcDbLine
 10
1.050388400974353
 20
20.81793652273608
 30
0.0
 11
1.306913546146999
 21
20.55636158969141
 31
0.0
  0
LINE
  5
35C
330
1F
100
AcDbEntity
  8
0
100
AcDbLine
 10
1.306913546146999
 20
20.55636158969141
 30
0.0
 11
1.553360327735493
 21
20.28527012994413
 31
0.0
  0
LINE
  5
35D
330
1F
100
AcDbEntity
  8
0
100
AcDbLine
 10
1.553360327735493
 20
20.28527012994413
 30
0.0
 11
1.789375971270255
 21
20.00505019541059
 31
0.0
  0
LINE
  5
35E
330
1F
100
AcDbEntity
  8
0
100
AcDbLine
 10
1.789375971270255
 20
20.00505019541059
 30
0.0
 11
2.014622633859592
 21
19.71610290489621
 31
0.0
  0
LINE
  5
35F
330
1F
100
AcDbEntity
  8
0
100
AcDbLine
 10
2.014622633859592
 20
19.71610290489621
 30
0.0
 11
2.228777887791545
 21
19.41884186991769
 31
0.0
  0
LINE
  5
360
330
1F
100
AcDbEntity
  8
0
100
AcDbLine
 10
2.228777887791545
 20
19.41884186991769
 30
0.0
 11
2.431535182071443
 21
19.11369260264103
 31
0.0
  0
LINE
  5
361
330
1F
100
AcDbEntity
  8
0
100
AcDbLine
 10
2.431535182071443
 20
19.11369260264103
 30
0.0
 11
2.622604281231658
 21
18.80109190678552
 31
0.0
  0
LINE
  5
362
330
1F
100
AcDbEntity
  8
0
100
AcDbLine
 10
2.622604281231658
 20
18.80109190678552
 30
0.0
 11
2.801711680787323
 21
18.48148725236448
 31
0.0
  0
LINE
  5
363
330
1F
100
AcDbEntity
  8
0
100
AcDbLine
 10
2.801711680787323
 20
18.48148725236448
 30
0.0
 11
2.968600998742266
 21
18.15533613515701
 31
0.0
  0
LINE
  5
364
330
1F
100
AcDbEntity
  8
0
100
AcDbLine
 10
2.968600998742266
 20
18.15533613515701
 30
0.0
 11
3.123033342584947
 21
17.82310542182894
 31
0.0
  0
LINE
  5
365
330
1F
100
AcDbEntity
  8
0
100
AcDbLine
 10
3.123033342584947
 20
17.82310542182894
 30
0.0
 11
3.264787651249944
 21
17.48527068164067
 31
0.0
  0
LINE
  5
366
330
1F
100
AcDbEntity
  8
0
100
AcDbLine
 10
3.264787651249944
 20
17.48527068164067
 30
0.0
 11
3.393661011553576
 21
17.14231550569608
 31
0.0
  0
LINE
  5
367
330
1F
100
AcDbEntity
  8
0
100
AcDbLine
 10
3.393661011553576
 20
17.14231550569608
 30
0.0
 11
3.509468948653341
 21
16.79473081470999
 31
0.0
  0
LINE
  5
368
330
1F
100
AcDbEntity
  8
0
100
AcDbLine
 10
3.509468948653341
 20
16.79473081470999
 30
0.0
 11
3.612045690112142
 21
16.4430141562832
 31
0.0
  0
LINE
  5
369
330
1F
100
AcDbEntity
  8
0
100
AcDbLine
 10
3.612045690112142
 20
16.4430141562832
 30
0.0
 11
3.70124440319276
 21
16.08766899269165
 31
0.0
  0
LINE
  5
36A
330
1F
100
AcDbEntity
  8
0
100
AcDbLine
 10
3.70124440319276
 20
16.08766899269165
 30
0.0
 11
3.776937405040177
 21
15.72920398020852
 31
0.0
  0
LINE
  5
36B
330
1F
100
AcDbEntity
  8
0
100
AcDbLine
 10
3.776937405040177
 20
15.72920398020852
 30
0.0
 11
3.839016345452479
 21
15.36813224099247
 31
0.0
  0
LINE
  5
36C
330
1F
100
AcDbEntity
  8
0
100
AcDbLine
 10
3.839016345452479
 20
15.36813224099247
 30
0.0
 11
3.88739236197787
 21
15.00497062858233
 31
0.0
  0
LINE
  5
36D
330
1F
100
AcDbEntity
  8
0
100
AcDbLine
 10
3.88739236197787
 20
15.00497062858233
 30
0.0
 11
3.921996207115964
 21
14.64023898805082
 31
0.0
  0
LINE
  5
36E
330
1F
100
AcDbEntity
  8
0
100
AcDbLine
 10
3.921996207115964
 20
14.64023898805082
 30
0.0
 11
3.941575271632087
 21
14.39614268633029
 31
0.0
  0
LINE
  5
36F
330
1F
100
AcDbEntity
  8
0
100
AcDbLine
 10
3.941575271632087
 20
13.51134268633026
 30
0.0
 11
3.917187647083172
 21
13.11519649477477
 31
0.0
  0
LINE
  5
370
330
1F
100
AcDbEntity
  8
0
100
AcDbLine
 10
3.553826074525711
 20
11.16765539560734
 30
0.0
 11
3.433723944452711
 21
10.78936709329427
 31
0.0
  0
LINE
  5
371
330
1F
100
AcDbEntity
  8
0
100
AcDbLine
 10
3.433723944452711
 20
10.78936709329427
 30
0.0
 11
3.298221103516093
 21
10.41631811338253
 31
0.0
  0
LINE
  5
372
330
1F
100
AcDbEntity
  8
0
100
AcDbLine
 10
3.298221103516093
 20
10.41631811338253
 30
0.0
 11
3.147545185969454
 21
10.04913514919923
 31
0.0
  0
LINE
  5
373
330
1F
100
AcDbEntity
  8
0
100
AcDbLine
 10
3.147545185969454
 20
10.04913514919923
 30
0.0
 11
2.981949315657562
 21
9.688435039619684
 31
0.0
  0
LINE
  5
374
330
1F
100
AcDbEntity
  8
0
100
AcDbLine
 10
2.981949315657562
 20
9.688435039619684
 30
0.0
 11
2.801711680787323
 21
9.334823732827278
 31
0.0
  0
LINE
  5
375
330
1F
100
AcDbEntity
  8
0
100
AcDbLine
 10
2.801711680787323
 20
9.334823732827278
 30
0.0
 11
2.607135066593775
 21
8.98889526836681
 31
0.0
  0
LINE
  5
376
330
1F
100
AcDbEntity
  8
0
100
AcDbLine
 10
2.607135066593775
 20
8.98889526836681
 30
0.0
 11
2.398546346683772
 21
8.65123077920439
 31
0.0
  0
LINE
  5
377
330
1F
100
AcDbEntity
  8
0
100
AcDbLine
 10
2.398546346683772
 20
8.65123077920439
 30
0.0
 11
2.17629593391425
 21
8.322397515469184
 31
0.0
  0
LINE
  5
378
330
1F
100
AcDbEntity
  8
0
100
AcDbLine
 10
2.17629593391425
 20
8.322397515469184
 30
0.0
 11
1.940757191725346
 21
8.002947891517062
 31
0.0
  0
LINE
  5
379
330
1F
100
AcDbEntity
  8
0
100
AcDbLine
 10
1.940757191725346
 20
8.002947891517062
 30
0.0
 11
1.692325806919422
 21
7.693418557917727
 31
0.0
  0
LINE
  5
37A
330
1F
100
AcDbEntity
  8
0
100
AcDbLine
 10
1.692325806919422
 20
7.693418557917727
 30
0.0
 11
1.431419124937407
 21
7.394329499923034
 31
0.0
  0
LINE
  5
37B
330
1F
100
AcDbEntity
  8
0
100
AcDbLine
 10
1.431419124937407
 20
7.394329499923034
 30
0.0
 11
1.158475448750973
 21
7.106183163932275
 31
0.0
  0
LINE
  5
37C
330
1F
100
AcDbEntity
  8
0
100
AcDbLine
 10
1.158475448750973
 20
7.106183163932275
 30
0.0
 11
0.8739533025476887
 21
6.829463613421527
 31
0.0
  0
LINE
  5
37D
330
1F
100
AcDbEntity
  8
0
100
AcDbLine
 10
3.949709034511789
 20
13.90815549259593
 30
0.0
 11
8.273778352202607
 21
13.91392392984732
 31
0.0
  0
LINE
  5
37E
330
1F
100
AcDbEntity
  8
0
100
AcDbLine
 10
-17.26425891581663
 20
8.513923929847476
 30
0.0
 11
-13.22428921655095
 21
8.513923929847476
 31
0.0
  0
LINE
  5
37F
330
1F
100
AcDbEntity
  8
0
100
AcDbLine
 10
-17.26425891581663
 20
19.31392392984749
 30
0.0
 11
-13.22428921655095
 21
19.31392392984749
 31
0.0
  0
LINE
  5
380
330
1F
100
AcDbEntity
  8
0
100
AcDbLine
 10
-17.26425891581662
 20
8.513923929847474
 30
0.0
 11
-20.72622164779738
 21
8.513923929847474
 31
0.0
  0
LINE
  5
381
330
1F
100
AcDbEntity
  8
0
100
AcDbLine
 10
5.514135950475195
 20
13.91392392984732
 30
0.0
 11
8.27377835220261
 21
13.91392392984732
 31
0.0
  0
LINE
  5
382
330
1F
100
AcDbEntity
  8
0
100
AcDbLine
 10
-17.26425891581662
 20
19.31392392984748
 30
0.0
 11
-13.22428921655095
 21
19.3139239298475
 31
0.0
  0
LINE
  5
383
330
1F
100
AcDbEntity
  8
0
100
AcDbLine
 10
-17.26425891581662
 20
8.513923929847474
 30
0.0
 11
-13.22428921655095
 21
8.513923929847474
 31
0.0
  0
LINE
  5
384
330
1F
100
AcDbEntity
  8
0
100
AcDbLine
 10
-20.44428664193508
 20
-8.09184450740413
 30
0.0
 11
-17.08232390995432
 21
-8.091844507404122
 31
0.0
  0
ENDSEC
  0
SECTION
  2
OBJECTS
  0
DICTIONARY
  5
C
330
0
100
AcDbDictionary
281
     1
  3
ACAD_DETAILVIEWSTYLE
350
38C
  3
ACAD_GROUP
350
D
  3
ACAD_LAYOUT
350
1A
  3
ACAD_MATERIAL
350
43
  3
ACAD_MLEADERSTYLE
350
5B
  3
ACAD_MLINESTYLE
350
17
  3
ACAD_PLOTSETTINGS
350
19
  3
ACAD_PLOTSTYLENAME
350
E
  3
ACAD_SCALELIST
350
47
  3
ACAD_SECTIONVIEWSTYLE
350
38D
  3
ACAD_TABLESTYLE
350
59
  3
ACAD_VISUALSTYLE
350
2A
  3
ACDB_RECOMPOSE_DATA
350
389
  3
AcDbVariableDictionary
350
385
  0
SUN
  5
5D
330
29
100
AcDbSun
 90
        1
290
     0
 63
     7
421
 16777215
 40
1.0
291
     1
 91
  2455826
 92
 54000000
292
     0
 70
     2
 71
   256
280
     1
  0
DICTIONARY
  5
38C
102
{ACAD_REACTORS
330
C
102
}
330
C
100
AcDbDictionary
281
     1
  0
DICTIONARY
  5
D
102
{ACAD_REACTORS
330
C
102
}
330
C
100
AcDbDictionary
281
     1
  0
DICTIONARY
  5
1A
102
{ACAD_REACTORS
330
C
102
}
330
C
100
AcDbDictionary
281
     1
  3
Layout1
350
1E
  3
Layout2
350
26
  3
Model
350
22
  0
DICTIONARY
  5
43
102
{ACAD_REACTORS
330
C
102
}
330
C
100
AcDbDictionary
281
     1
  3
ByBlock
350
45
  3
ByLayer
350
44
  3
Global
350
46
  0
DICTIONARY
  5
5B
102
{ACAD_REACTORS
330
C
102
}
330
C
100
AcDbDictionary
281
     1
  3
Standard
350
5C
  0
DICTIONARY
  5
17
102
{ACAD_REACTORS
330
C
102
}
330
C
100
AcDbDictionary
281
     1
  3
Standard
350
18
  0
DICTIONARY
  5
19
102
{ACAD_REACTORS
330
C
102
}
330
C
100
AcDbDictionary
281
     1
  0
ACDBDICTIONARYWDFLT
  5
E
102
{ACAD_REACTORS
330
C
102
}
330
C
100
AcDbDictionary
281
     1
  3
Normal
350
F
100
AcDbDictionaryWithDefault
340
F
  0
DICTIONARY
  5
47
102
{ACAD_REACTORS
330
C
102
}
330
C
100
AcDbDictionary
281
     1
  3
A0
350
48
  3
A1
350
49
  3
A2
350
4A
  3
A3
350
4B
  3
A4
350
4C
  3
A5
350
4D
  3
A6
350
4E
  3
A7
350
4F
  3
A8
350
50
  3
A9
350
51
  3
B1
350
52
  3
B2
350
53
  3
B3
350
54
  3
B4
350
55
  3
B5
350
56
  3
B6
350
57
  3
B7
350
58
  0
DICTIONARY
  5
38D
102
{ACAD_REACTORS
330
C
102
}
330
C
100
AcDbDictionary
281
     1
  0
DICTIONARY
  5
59
102
{ACAD_REACTORS
330
C
102
}
330
C
100
AcDbDictionary
281
     1
  3
Standard
350
5A
  0
DICTIONARY
  5
2A
102
{ACAD_REACTORS
330
C
102
}
330
C
100
AcDbDictionary
281
     1
  3
2dWireframe
350
2F
  3
Basic
350
32
  3
Brighten
350
36
  3
ColorChange
350
3A
  3
Conceptual
350
34
  3
Dim
350
35
  3
EdgeColorOff
350
3D
  3
Facepattern
350
39
  3
Flat
350
2B
  3
FlatWithEdges
350
2C
  3
Gouraud
350
2D
  3
GouraudWithEdges
350
2E
  3
Hidden
350
31
  3
JitterOff
350
3B
  3
Linepattern
350
38
  3
OverhangOff
350
3C
  3
Realistic
350
33
  3
Shaded
350
42
  3
Shaded with edges
350
41
  3
Shades of Gray
350
3E
  3
Sketchy
350
3F
  3
Thicken
350
37
  3
Wireframe
350
30
  3
X-Ray
350
40
  0
XRECORD
  5
389
102
{ACAD_REACTORS
330
C
102
}
330
C
100
AcDbXrecord
280
     1
 90
        1
330
5A
  0
DICTIONARY
  5
385
102
{ACAD_REACTORS
330
C
102
}
330
C
100
AcDbDictionary
281
     1
  3
CANNOSCALE
350
386
  3
CMLEADERSTYLE
350
38B
  3
CTABLESTYLE
350
38A
  0
LAYOUT
  5
1E
102
{ACAD_REACTORS
330
1A
102
}
330
1A
100
AcDbPlotSettings
  1

  2
none_device
  4

  6

 40
0.0
 41
0.0
 42
0.0
 43
0.0
 44
0.0
 45
0.0
 46
0.0
 47
0.0
 48
0.0
 49
0.0
140
0.0
141
0.0
142
1.0
143
1.0
 70
   688
 72
     0
 73
     0
 74
     5
  7

 75
    16
 76
     0
 77
     2
 78
   300
147
1.0
148
0.0
149
0.0
100
AcDbLayout
  1
Layout1
 70
     1
 71
     1
 10
0.0
 20
0.0
 11
12.0
 21
9.0
 12
0.0
 22
0.0
 32
0.0
 14
1.000000000000000E+20
 24
1.000000000000000E+20
 34
1.000000000000000E+20
 15
-1.000000000000000E+20
 25
-1.000000000000000E+20
 35
-1.000000000000000E+20
146
0.0
 13
0.0
 23
0.0
 33
0.0
 16
1.0
 26
0.0
 36
0.0
 17
0.0
 27
1.0
 37
0.0
 76
     0
330
1B
  0
LAYOUT
  5
26
102
{ACAD_REACTORS
330
1A
102
}
330
1A
100
AcDbPlotSettings
  1

  2
none_device
  4

  6

 40
0.0
 41
0.0
 42
0.0
 43
0.0
 44
0.0
 45
0.0
 46
0.0
 47
0.0
 48
0.0
 49
0.0
140
0.0
141
0.0
142
1.0
143
1.0
 70
   688
 72
     0
 73
     0
 74
     5
  7

 75
    16
 76
     0
 77
     2
 78
   300
147
1.0
148
0.0
149
0.0
100
AcDbLayout
  1
Layout2
 70
     1
 71
     2
 10
0.0
 20
0.0
 11
0.0
 21
0.0
 12
0.0
 22
0.0
 32
0.0
 14
0.0
 24
0.0
 34
0.0
 15
0.0
 25
0.0
 35
0.0
146
0.0
 13
0.0
 23
0.0
 33
0.0
 16
1.0
 26
0.0
 36
0.0
 17
0.0
 27
1.0
 37
0.0
 76
     0
330
23
  0
LAYOUT
  5
22
102
{ACAD_REACTORS
330
1A
102
}
330
1A
100
AcDbPlotSettings
  1

  2
none_device
  4
Letter_(8.50_x_11.00_Inches)
  6

 40
6.35
 41
6.35
 42
6.35000508
 43
6.35000508
 44
215.9
 45
279.4
 46
0.0
 47
0.0
 48
0.0
 49
0.0
140
0.0
141
0.0
142
1.0
143
1.0
 70
  1712
 72
     0
 73
     0
 74
     0
  7

 75
     0
 76
     0
 77
     2
 78
   300
147
1.0
148
0.0
149
0.0
100
AcDbLayout
  1
Model
 70
     1
 71
     0
 10
0.0
 20
0.0
 11
12.0
 21
9.0
 12
0.0
 22
0.0
 32
0.0
 14
1.000000000000000E+20
 24
1.000000000000000E+20
 34
1.000000000000000E+20
 15
-1.000000000000000E+20
 25
-1.000000000000000E+20
 35
-1.000000000000000E+20
146
0.0
 13
0.0
 23
0.0
 33
0.0
 16
1.0
 26
0.0
 36
0.0
 17
0.0
 27
1.0
 37
0.0
 76
     0
330
1F
331
29
  0
MATERIAL
  5
45
102
{ACAD_REACTORS
330
43
102
}
330
43
100
AcDbMaterial
  1
ByBlock
 72
     1
 94
      127
  0
MATERIAL
  5
44
102
{ACAD_REACTORS
330
43
102
}
330
43
100
AcDbMaterial
  1
ByLayer
 72
     1
 94
      127
  0
MATERIAL
  5
46
102
{ACAD_REACTORS
330
43
102
}
330
43
100
AcDbMaterial
  1
Global
 72
     1
 94
      127
  0
MLEADERSTYLE
  5
5C
102
{ACAD_REACTORS
330
5B
102
}
330
5B
100
AcDbMLeaderStyle
179
     2
170
     2
171
     1
172
     0
 90
        2
 40
0.0
 41
0.0
173
     1
 91
-1056964608
340
14
 92
       -2
290
     1
 42
0.09
291
     1
 43
0.36
  3
Standard
341
0
 44
0.18
300

342
11
174
     1
178
     6
175
     1
176
     0
 93
-1056964608
 45
0.18
292
     0
297
     0
 46
0.18
343
0
 94
-1056964608
 47
1.0
 49
1.0
140
1.0
293
     1
141
0.0
294
     1
177
     0
142
1.0
295
     0
296
     0
143
0.125
271
     0
272
     9
273
     9
298
     0
  0
MLINESTYLE
  5
18
102
{ACAD_REACTORS
330
17
102
}
330
17
100
AcDbMlineStyle
  2
Standard
 70
     0
  3

 62
   256
 51
90.0
 52
90.0
 71
     2
 49
0.5
 62
   256
  6
BYLAYER
 49
-0.5
 62
   256
  6
BYLAYER
  0
ACDBPLACEHOLDER
  5
F
102
{ACAD_REACTORS
330
E
102
}
330
E
  0
SCALE
  5
48
102
{ACAD_REACTORS
330
47
102
}
330
47
100
AcDbScale
 70
     0
300
1:1
140
1.0
141
1.0
290
     1
  0
SCALE
  5
49
102
{ACAD_REACTORS
330
47
102
}
330
47
100
AcDbScale
 70
     0
300
1/128" = 1'-0"
140
0.0078125
141
12.0
290
     0
  0
SCALE
  5
4A
102
{ACAD_REACTORS
330
47
102
}
330
47
100
AcDbScale
 70
     0
300
1/64" = 1'-0"
140
0.015625
141
12.0
290
     0
  0
SCALE
  5
4B
102
{ACAD_REACTORS
330
47
102
}
330
47
100
AcDbScale
 70
     0
300
1/32" = 1'-0"
140
0.03125
141
12.0
290
     0
  0
SCALE
  5
4C
102
{ACAD_REACTORS
330
47
102
}
330
47
100
AcDbScale
 70
     0
300
1/16" = 1'-0"
140
0.0625
141
12.0
290
     0
  0
SCALE
  5
4D
102
{ACAD_REACTORS
330
47
102
}
330
47
100
AcDbScale
 70
     0
300
3/32" = 1'-0"
140
0.09375
141
12.0
290
     0
  0
SCALE
  5
4E
102
{ACAD_REACTORS
330
47
102
}
330
47
100
AcDbScale
 70
     0
300
1/8" = 1'-0"
140
0.125
141
12.0
290
     0
  0
SCALE
  5
4F
102
{ACAD_REACTORS
330
47
102
}
330
47
100
AcDbScale
 70
     0
300
3/16" = 1'-0"
140
0.1875
141
12.0
290
     0
  0
SCALE
  5
50
102
{ACAD_REACTORS
330
47
102
}
330
47
100
AcDbScale
 70
     0
300
1/4" = 1'-0"
140
0.25
141
12.0
290
     0
  0
SCALE
  5
51
102
{ACAD_REACTORS
330
47
102
}
330
47
100
AcDbScale
 70
     0
300
3/8" = 1'-0"
140
0.375
141
12.0
290
     0
  0
SCALE
  5
52
102
{ACAD_REACTORS
330
47
102
}
330
47
100
AcDbScale
 70
     0
300
1/2" = 1'-0"
140
0.5
141
12.0
290
     0
  0
SCALE
  5
53
102
{ACAD_REACTORS
330
47
102
}
330
47
100
AcDbScale
 70
     0
300
3/4" = 1'-0"
140
0.75
141
12.0
290
     0
  0
SCALE
  5
54
102
{ACAD_REACTORS
330
47
102
}
330
47
100
AcDbScale
 70
     0
300
1" = 1'-0"
140
1.0
141
12.0
290
     0
  0
SCALE
  5
55
102
{ACAD_REACTORS
330
47
102
}
330
47
100
AcDbScale
 70
     0
300
1-1/2" = 1'-0"
140
1.5
141
12.0
290
     0
  0
SCALE
  5
56
102
{ACAD_REACTORS
330
47
102
}
330
47
100
AcDbScale
 70
     0
300
3" = 1'-0"
140
3.0
141
12.0
290
     0
  0
SCALE
  5
57
102
{ACAD_REACTORS
330
47
102
}
330
47
100
AcDbScale
 70
     0
300
6" = 1'-0"
140
6.0
141
12.0
290
     0
  0
SCALE
  5
58
102
{ACAD_REACTORS
330
47
102
}
330
47
100
AcDbScale
 70
     0
300
1'-0" = 1'-0"
140
12.0
141
12.0
290
     0
  0
TABLESTYLE
  5
5A
102
{ACAD_REACTORS
330
59
102
}
102
{ACAD_XDICTIONARY
360
387
102
}
330
59
100
AcDbTableStyle
  3
Standard
 70
     0
 71
     0
 40
0.06
 41
0.06
280
     0
281
     0
  7
Standard
140
0.18
170
     2
 62
     0
 63
   257
283
     0
 90
        4
 91
        0
  1

274
    -2
284
     1
 64
     0
275
    -2
285
     1
 65
     0
276
    -2
286
     1
 66
     0
277
    -2
287
     1
 67
     0
278
    -2
288
     1
 68
     0
279
    -2
289
     1
 69
     0
  7
Standard
140
0.25
170
     5
 62
     0
 63
   257
283
     0
 90
        4
 91
        0
  1

274
    -2
284
     1
 64
     0
275
    -2
285
     1
 65
     0
276
    -2
286
     1
 66
     0
277
    -2
287
     1
 67
     0
278
    -2
288
     1
 68
     0
279
    -2
289
     1
 69
     0
  7
Standard
140
0.18
170
     5
 62
     0
 63
   257
283
     0
 90
        4
 91
        0
  1

274
    -2
284
     1
 64
     0
275
    -2
285
     1
 65
     0
276
    -2
286
     1
 66
     0
277
    -2
287
     1
 67
     0
278
    -2
288
     1
 68
     0
279
    -2
289
     1
 69
     0
  0
VISUALSTYLE
  5
2F
102
{ACAD_REACTORS
330
2A
102
}
330
2A
100
AcDbVisualStyle
  2
2dWireframe
 70
     4
177
     3
291
     0
 70
    58
 90
        0
176
     1
 90
        2
176
     1
 90
        0
176
     1
 90
        0
176
     1
 40
0.6
176
     1
 40
30.0
176
     1
 62
     7
420
 16777215
176
     1
 90
        1
176
     1
 90
        4
176
     1
 62
     7
176
     1
 62
   257
176
     1
 90
        1
176
     1
 90
        1
176
     1
 40
1.0
176
     1
 90
        0
176
     1
 62
   257
176
     1
 40
1.0
176
     1
 90
        1
176
     1
 90
        6
176
     1
 90
        2
176
     1
 62
     7
176
     1
 90
        5
176
     1
 90
        0
176
     1
 90
        0
176
     1
290
     0
176
     1
 90
        1
176
     1
 40
0.0
176
     1
 90
        0
176
     1
290
     1
176
     1
290
     1
176
     1
290
     0
176
     1
290
     0
176
     1
290
     0
176
     1
290
     0
176
     1
290
     0
176
     1
290
     0
176
     1
290
     0
176
     1
 90
       50
176
     1
 40
0.0
176
     1
 40
1.0
176
     1
 90
        0
176
     1
 62
    18
420
        0
176
     1
 90
       50
176
     1
 90
        3
176
     1
 62
     5
420
      255
176
     1
290
     0
176
     1
 90
       50
176
     1
 90
       50
176
     1
 90
       50
176
     1
290
     0
176
     1
 90
       50
176
     1
 62
   256
176
     0
 40
1.0
176
     0
 90
        2
176
     1
  1
strokes_ogs.tif
176
     1
290
     0
176
     1
 40
1.0
176
     1
 40
1.0
176
     1
  0
VISUALSTYLE
  5
32
102
{ACAD_REACTORS
330
2A
102
}
330
2A
100
AcDbVisualStyle
  2
Basic
 70
     7
177
     3
291
     1
 70
    58
 90
        1
176
     1
 90
        0
176
     1
 90
        1
176
     1
 90
        0
176
     1
 40
0.6
176
     1
 40
30.0
176
     1
 62
     7
420
 16777215
176
     1
 90
        0
176
     1
 90
        4
176
     1
 62
     7
176
     1
 62
   257
176
     1
 90
        1
176
     1
 90
        1
176
     1
 40
1.0
176
     1
 90
        8
176
     1
 62
     7
176
     1
 40
1.0
176
     1
 90
        1
176
     1
 90
        6
176
     1
 90
        2
176
     1
 62
     7
176
     1
 90
        5
176
     1
 90
        0
176
     1
 90
        0
176
     1
290
     0
176
     1
 90
        1
176
     1
 40
0.0
176
     1
 90
        0
176
     1
290
     0
176
     1
290
     1
176
     1
290
     1
176
     1
290
     0
176
     1
290
     0
176
     1
290
     0
176
     1
290
     0
176
     1
290
     0
176
     1
290
     0
176
     1
 90
       50
176
     1
 40
0.0
176
     1
 40
1.0
176
     1
 90
        0
176
     1
 62
    18
420
        0
176
     1
 90
       50
176
     1
 90
        3
176
     1
 62
     5
420
      255
176
     1
290
     0
176
     1
 90
       50
176
     1
 90
       50
176
     1
 90
       50
176
     1
290
     0
176
     1
 90
       50
176
     1
 62
   256
176
     0
 40
1.0
176
     0
 90
        2
176
     1
  1
strokes_ogs.tif
176
     1
290
     0
176
     1
 40
1.0
176
     1
 40
1.0
176
     1
  0
VISUALSTYLE
  5
36
102
{ACAD_REACTORS
330
2A
102
}
330
2A
100
AcDbVisualStyle
  2
Brighten
 70
    12
177
     3
291
     1
 70
    58
 90
        2
176
     1
 90
        2
176
     1
 90
        0
176
     1
 90
        0
176
     1
 40
0.6
176
     1
 40
30.0
176
     1
 62
     7
420
 16777215
176
     1
 90
        1
176
     1
 90
        4
176
     1
 62
     7
176
     1
 62
   257
176
     1
 90
        1
176
     1
 90
        1
176
     1
 40
1.0
176
     1
 90
        8
176
     1
 62
     7
176
     1
 40
1.0
176
     1
 90
        1
176
     1
 90
        6
176
     1
 90
        2
176
     1
 62
     7
176
     1
 90
        5
176
     1
 90
        0
176
     1
 90
        0
176
     1
290
     0
176
     1
 90
        1
176
     1
 40
50.0
176
     1
 90
        0
176
     1
290
     0
176
     1
290
     1
176
     1
290
     1
176
     1
290
     0
176
     1
290
     0
176
     1
290
     0
176
     1
290
     0
176
     1
290
     0
176
     1
290
     0
176
     1
 90
       50
176
     1
 40
0.0
176
     1
 40
1.0
176
     1
 90
        0
176
     1
 62
    18
420
        0
176
     1
 90
       50
176
     1
 90
        3
176
     1
 62
     5
420
      255
176
     1
290
     0
176
     1
 90
       50
176
     1
 90
       50
176
     1
 90
       50
176
     1
290
     0
176
     1
 90
       50
176
     1
 62
   256
176
     0
 40
1.0
176
     0
 90
        2
176
     1
  1
strokes_ogs.tif
176
     1
290
     0
176
     1
 40
1.0
176
     1
 40
1.0
176
     1
  0
VISUALSTYLE
  5
3A
102
{ACAD_REACTORS
330
2A
102
}
330
2A
100
AcDbVisualStyle
  2
ColorChange
 70
    16
177
     3
291
     1
 70
    58
 90
        2
176
     1
 90
        2
176
     1
 90
        3
176
     1
 90
        0
176
     1
 40
0.6
176
     1
 40
30.0
176
     1
 62
     8
420
  8421504
176
     1
 90
        1
176
     1
 90
        4
176
     1
 62
     7
176
     1
 62
   257
176
     1
 90
        1
176
     1
 90
        1
176
     1
 40
1.0
176
     1
 90
        8
176
     1
 62
     8
420
  8421504
176
     1
 40
1.0
176
     1
 90
        1
176
     1
 90
        6
176
     1
 90
        2
176
     1
 62
     7
176
     1
 90
        5
176
     1
 90
        0
176
     1
 90
        0
176
     1
290
     0
176
     1
 90
        1
176
     1
 40
0.0
176
     1
 90
        0
176
     1
290
     0
176
     1
290
     1
176
     1
290
     1
176
     1
290
     0
176
     1
290
     0
176
     1
290
     0
176
     1
290
     0
176
     1
290
     0
176
     1
290
     0
176
     1
 90
       50
176
     1
 40
0.0
176
     1
 40
1.0
176
     1
 90
        0
176
     1
 62
    18
420
        0
176
     1
 90
       50
176
     1
 90
        3
176
     1
 62
     5
420
      255
176
     1
290
     0
176
     1
 90
       50
176
     1
 90
       50
176
     1
 90
       50
176
     1
290
     0
176
     1
 90
       50
176
     1
 62
   256
176
     0
 40
1.0
176
     0
 90
        2
176
     1
  1
strokes_ogs.tif
176
     1
290
     0
176
     1
 40
1.0
176
     1
 40
1.0
176
     1
  0
VISUALSTYLE
  5
34
102
{ACAD_REACTORS
330
2A
102
}
330
2A
100
AcDbVisualStyle
  2
Conceptual
 70
     9
177
     3
291
     0
 70
    58
 90
        3
176
     1
 90
        2
176
     1
 90
        0
176
     1
 90
        0
176
     1
 40
0.6
176
     1
 40
30.0
176
     1
 62
     7
420
 16777215
176
     1
 90
        2
176
     1
 90
        2
176
     1
 62
     7
176
     1
 62
   257
176
     1
 90
        1
176
     1
 90
        1
176
     1
 40
179.0
176
     1
 90
        8
176
     1
 62
     7
176
     1
 40
1.0
176
     1
 90
        1
176
     1
 90
        6
176
     1
 90
        2
176
     1
 62
     7
176
     1
 90
        3
176
     1
 90
        0
176
     1
 90
        0
176
     1
290
     0
176
     1
 90
        1
176
     1
 40
0.0
176
     1
 90
        0
176
     1
290
     0
176
     1
290
     1
176
     1
290
     1
176
     1
290
     0
176
     1
290
     0
176
     1
290
     0
176
     1
290
     0
176
     1
290
     0
176
     1
290
     0
176
     1
 90
       50
176
     1
 40
0.0
176
     1
 40
1.0
176
     1
 90
        0
176
     1
 62
    18
420
        0
176
     1
 90
       50
176
     1
 90
        3
176
     1
 62
     5
420
      255
176
     1
290
     0
176
     1
 90
       50
176
     1
 90
       50
176
     1
 90
       50
176
     1
290
     0
176
     1
 90
       50
176
     1
 62
   256
176
     0
 40
1.0
176
     0
 90
        2
176
     1
  1
strokes_ogs.tif
176
     1
290
     0
176
     1
 40
1.0
176
     1
 40
1.0
176
     1
  0
VISUALSTYLE
  5
35
102
{ACAD_REACTORS
330
2A
102
}
330
2A
100
AcDbVisualStyle
  2
Dim
 70
    11
177
     3
291
     1
 70
    58
 90
        2
176
     1
 90
        2
176
     1
 90
        0
176
     1
 90
        0
176
     1
 40
0.6
176
     1
 40
30.0
176
     1
 62
     7
420
 16777215
176
     1
 90
        1
176
     1
 90
        4
176
     1
 62
     7
176
     1
 62
   257
176
     1
 90
        1
176
     1
 90
        1
176
     1
 40
1.0
176
     1
 90
        8
176
     1
 62
     7
176
     1
 40
1.0
176
     1
 90
        1
176
     1
 90
        6
176
     1
 90
        2
176
     1
 62
     7
176
     1
 90
        5
176
     1
 90
        0
176
     1
 90
        0
176
     1
290
     0
176
     1
 90
        1
176
     1
 40
-50.0
176
     1
 90
        0
176
     1
290
     0
176
     1
290
     1
176
     1
290
     1
176
     1
290
     0
176
     1
290
     0
176
     1
290
     0
176
     1
290
     0
176
     1
290
     0
176
     1
290
     0
176
     1
 90
       50
176
     1
 40
0.0
176
     1
 40
1.0
176
     1
 90
        0
176
     1
 62
    18
420
        0
176
     1
 90
       50
176
     1
 90
        3
176
     1
 62
     5
420
      255
176
     1
290
     0
176
     1
 90
       50
176
     1
 90
       50
176
     1
 90
       50
176
     1
290
     0
176
     1
 90
       50
176
     1
 62
   256
176
     0
 40
1.0
176
     0
 90
        2
176
     1
  1
strokes_ogs.tif
176
     1
290
     0
176
     1
 40
1.0
176
     1
 40
1.0
176
     1
  0
VISUALSTYLE
  5
3D
102
{ACAD_REACTORS
330
2A
102
}
330
2A
100
AcDbVisualStyle
  2
EdgeColorOff
 70
    22
177
     3
291
     1
 70
    58
 90
        2
176
     0
 90
        2
176
     0
 90
        0
176
     0
 90
        0
176
     0
 40
0.6
176
     0
 40
30.0
176
     0
 62
     7
420
 16777215
176
     0
 90
        1
176
     0
 90
        4
176
     0
 62
     7
176
     0
 62
   257
176
     0
 90
        1
176
     0
 90
        1
176
     0
 40
1.0
176
     0
 90
        8
176
     2
 62
     7
176
     0
 40
1.0
176
     0
 90
        1
176
     0
 90
        6
176
     0
 90
        2
176
     0
 62
     7
176
     0
 90
        5
176
     0
 90
        0
176
     0
 90
        0
176
     0
290
     0
176
     0
 90
        1
176
     0
 40
0.0
176
     0
 90
        0
176
     0
290
     0
176
     0
290
     1
176
     0
290
     1
176
     0
290
     0
176
     0
290
     0
176
     0
290
     0
176
     0
290
     0
176
     0
290
     0
176
     0
290
     0
176
     0
 90
       50
176
     0
 40
0.0
176
     0
 40
1.0
176
     0
 90
        0
176
     0
 62
    18
420
        0
176
     0
 90
       50
176
     0
 90
        3
176
     0
 62
     5
420
      255
176
     0
290
     0
176
     0
 90
       50
176
     0
 90
       50
176
     0
 90
       50
176
     0
290
     0
176
     0
 90
       50
176
     0
 62
   256
176
     0
 40
1.0
176
     0
 90
        2
176
     0
  1
strokes_ogs.tif
176
     0
290
     0
176
     0
 40
1.0
176
     0
 40
1.0
176
     0
  0
VISUALSTYLE
  5
39
102
{ACAD_REACTORS
330
2A
102
}
330
2A
100
AcDbVisualStyle
  2
Facepattern
 70
    15
177
     3
291
     1
 70
    58
 90
        2
176
     1
 90
        2
176
     1
 90
        0
176
     1
 90
        0
176
     1
 40
0.6
176
     1
 40
30.0
176
     1
 62
     7
420
 16777215
176
     1
 90
        1
176
     1
 90
        4
176
     1
 62
     7
176
     1
 62
   257
176
     1
 90
        1
176
     1
 90
        1
176
     1
 40
1.0
176
     1
 90
        8
176
     1
 62
     7
176
     1
 40
1.0
176
     1
 90
        1
176
     1
 90
        6
176
     1
 90
        2
176
     1
 62
     7
176
     1
 90
        5
176
     1
 90
        0
176
     1
 90
        0
176
     1
290
     0
176
     1
 90
        1
176
     1
 40
0.0
176
     1
 90
        0
176
     1
290
     0
176
     1
290
     1
176
     1
290
     1
176
     1
290
     0
176
     1
290
     0
176
     1
290
     0
176
     1
290
     0
176
     1
290
     0
176
     1
290
     0
176
     1
 90
       50
176
     1
 40
0.0
176
     1
 40
1.0
176
     1
 90
        0
176
     1
 62
    18
420
        0
176
     1
 90
       50
176
     1
 90
        3
176
     1
 62
     5
420
      255
176
     1
290
     0
176
     1
 90
       50
176
     1
 90
       50
176
     1
 90
       50
176
     1
290
     0
176
     1
 90
       50
176
     1
 62
   256
176
     0
 40
1.0
176
     0
 90
        2
176
     1
  1
strokes_ogs.tif
176
     1
290
     0
176
     1
 40
1.0
176
     1
 40
1.0
176
     1
  0
VISUALSTYLE
  5
2B
102
{ACAD_REACTORS
330
2A
102
}
330
2A
100
AcDbVisualStyle
  2
Flat
 70
     0
177
     3
291
     1
 70
    58
 90
        2
176
     1
 90
        1
176
     1
 90
        1
176
     1
 90
        2
176
     1
 40
0.6
176
     1
 40
30.0
176
     1
 62
     7
420
 16777215
176
     1
 90
        0
176
     1
 90
        0
176
     1
 62
     7
176
     1
 62
   257
176
     1
 90
        1
176
     1
 90
        1
176
     1
 40
1.0
176
     1
 90
        8
176
     1
 62
     7
176
     1
 40
1.0
176
     1
 90
        1
176
     1
 90
        6
176
     1
 90
        2
176
     1
 62
     7
176
     1
 90
        5
176
     1
 90
        0
176
     1
 90
        0
176
     1
290
     0
176
     1
 90
       13
176
     1
 40
0.0
176
     1
 90
        0
176
     1
290
     0
176
     1
290
     1
176
     1
290
     1
176
     1
290
     0
176
     1
290
     0
176
     1
290
     0
176
     1
290
     0
176
     1
290
     0
176
     1
290
     0
176
     1
 90
       50
176
     1
 40
0.0
176
     1
 40
1.0
176
     1
 90
        0
176
     1
 62
    18
420
        0
176
     1
 90
       50
176
     1
 90
        3
176
     1
 62
     5
420
      255
176
     1
290
     0
176
     1
 90
       50
176
     1
 90
       50
176
     1
 90
       50
176
     1
290
     0
176
     1
 90
       50
176
     1
 62
   256
176
     0
 40
1.0
176
     0
 90
        2
176
     1
  1
strokes_ogs.tif
176
     1
290
     0
176
     1
 40
1.0
176
     1
 40
1.0
176
     1
  0
VISUALSTYLE
  5
2C
102
{ACAD_REACTORS
330
2A
102
}
330
2A
100
AcDbVisualStyle
  2
FlatWithEdges
 70
     1
177
     3
291
     1
 70
    58
 90
        2
176
     1
 90
        1
176
     1
 90
        1
176
     1
 90
        2
176
     1
 40
0.6
176
     1
 40
30.0
176
     1
 62
     7
420
 16777215
176
     1
 90
        1
176
     1
 90
        0
176
     1
 62
     7
176
     1
 62
   257
176
     1
 90
        1
176
     1
 90
        1
176
     1
 40
1.0
176
     1
 90
        0
176
     1
 62
   257
176
     1
 40
1.0
176
     1
 90
        1
176
     1
 90
        6
176
     1
 90
        2
176
     1
 62
     7
176
     1
 90
        5
176
     1
 90
        0
176
     1
 90
        0
176
     1
290
     0
176
     1
 90
       13
176
     1
 40
0.0
176
     1
 90
        0
176
     1
290
     0
176
     1
290
     1
176
     1
290
     1
176
     1
290
     0
176
     1
290
     0
176
     1
290
     0
176
     1
290
     0
176
     1
290
     0
176
     1
290
     0
176
     1
 90
       50
176
     1
 40
0.0
176
     1
 40
1.0
176
     1
 90
        0
176
     1
 62
    18
420
        0
176
     1
 90
       50
176
     1
 90
        3
176
     1
 62
     5
420
      255
176
     1
290
     0
176
     1
 90
       50
176
     1
 90
       50
176
     1
 90
       50
176
     1
290
     0
176
     1
 90
       50
176
     1
 62
   256
176
     0
 40
1.0
176
     0
 90
        2
176
     1
  1
strokes_ogs.tif
176
     1
290
     0
176
     1
 40
1.0
176
     1
 40
1.0
176
     1
  0
VISUALSTYLE
  5
2D
102
{ACAD_REACTORS
330
2A
102
}
330
2A
100
AcDbVisualStyle
  2
Gouraud
 70
     2
177
     3
291
     1
 70
    58
 90
        2
176
     1
 90
        2
176
     1
 90
        1
176
     1
 90
        2
176
     1
 40
0.6
176
     1
 40
30.0
176
     1
 62
     7
420
 16777215
176
     1
 90
        0
176
     1
 90
        0
176
     1
 62
     7
176
     1
 62
   257
176
     1
 90
        1
176
     1
 90
        1
176
     1
 40
1.0
176
     1
 90
        0
176
     1
 62
     7
176
     1
 40
1.0
176
     1
 90
        1
176
     1
 90
        6
176
     1
 90
        2
176
     1
 62
     7
176
     1
 90
        5
176
     1
 90
        0
176
     1
 90
        0
176
     1
290
     0
176
     1
 90
       13
176
     1
 40
0.0
176
     1
 90
        0
176
     1
290
     0
176
     1
290
     1
176
     1
290
     1
176
     1
290
     0
176
     1
290
     0
176
     1
290
     0
176
     1
290
     0
176
     1
290
     0
176
     1
290
     0
176
     1
 90
       50
176
     1
 40
0.0
176
     1
 40
1.0
176
     1
 90
        0
176
     1
 62
    18
420
        0
176
     1
 90
       50
176
     1
 90
        3
176
     1
 62
     5
420
      255
176
     1
290
     0
176
     1
 90
       50
176
     1
 90
       50
176
     1
 90
       50
176
     1
290
     0
176
     1
 90
       50
176
     1
 62
   256
176
     0
 40
1.0
176
     0
 90
        2
176
     1
  1
strokes_ogs.tif
176
     1
290
     0
176
     1
 40
1.0
176
     1
 40
1.0
176
     1
  0
VISUALSTYLE
  5
2E
102
{ACAD_REACTORS
330
2A
102
}
330
2A
100
AcDbVisualStyle
  2
GouraudWithEdges
 70
     3
177
     3
291
     1
 70
    58
 90
        2
176
     1
 90
        2
176
     1
 90
        1
176
     1
 90
        2
176
     1
 40
0.6
176
     1
 40
30.0
176
     1
 62
     7
420
 16777215
176
     1
 90
        1
176
     1
 90
        0
176
     1
 62
     7
176
     1
 62
   257
176
     1
 90
        1
176
     1
 90
        1
176
     1
 40
1.0
176
     1
 90
        0
176
     1
 62
   257
176
     1
 40
1.0
176
     1
 90
        1
176
     1
 90
        6
176
     1
 90
        2
176
     1
 62
     7
176
     1
 90
        5
176
     1
 90
        0
176
     1
 90
        0
176
     1
290
     0
176
     1
 90
       13
176
     1
 40
0.0
176
     1
 90
        0
176
     1
290
     0
176
     1
290
     1
176
     1
290
     1
176
     1
290
     0
176
     1
290
     0
176
     1
290
     0
176
     1
290
     0
176
     1
290
     0
176
     1
290
     0
176
     1
 90
       50
176
     1
 40
0.0
176
     1
 40
1.0
176
     1
 90
        0
176
     1
 62
    18
420
        0
176
     1
 90
       50
176
     1
 90
        3
176
     1
 62
     5
420
      255
176
     1
290
     0
176
     1
 90
       50
176
     1
 90
       50
176
     1
 90
       50
176
     1
290
     0
176
     1
 90
       50
176
     1
 62
   256
176
     0
 40
1.0
176
     0
 90
        2
176
     1
  1
strokes_ogs.tif
176
     1
290
     0
176
     1
 40
1.0
176
     1
 40
1.0
176
     1
  0
VISUALSTYLE
  5
31
102
{ACAD_REACTORS
330
2A
102
}
330
2A
100
AcDbVisualStyle
  2
Hidden
 70
     6
177
     3
291
     0
 70
    58
 90
        1
176
     1
 90
        2
176
     1
 90
        2
176
     1
 90
        0
176
     1
 40
0.6
176
     1
 40
30.0
176
     1
 62
     7
420
 16777215
176
     1
 90
        2
176
     1
 90
        2
176
     1
 62
     7
176
     1
 62
   257
176
     1
 90
        2
176
     1
 90
        1
176
     1
 40
40.0
176
     1
 90
        0
176
     1
 62
   257
176
     1
 40
1.0
176
     1
 90
        1
176
     1
 90
        6
176
     1
 90
        2
176
     1
 62
     7
176
     1
 90
        3
176
     1
 90
        0
176
     1
 90
        0
176
     1
290
     0
176
     1
 90
        1
176
     1
 40
0.0
176
     1
 90
        0
176
     1
290
     0
176
     1
290
     1
176
     1
290
     1
176
     1
290
     0
176
     1
290
     0
176
     1
290
     0
176
     1
290
     0
176
     1
290
     0
176
     1
290
     0
176
     1
 90
       50
176
     1
 40
0.0
176
     1
 40
1.0
176
     1
 90
        0
176
     1
 62
    18
420
        0
176
     1
 90
       50
176
     1
 90
        3
176
     1
 62
     5
420
      255
176
     1
290
     0
176
     1
 90
       50
176
     1
 90
       50
176
     1
 90
       50
176
     1
290
     0
176
     1
 90
       50
176
     1
 62
   256
176
     0
 40
1.0
176
     0
 90
        2
176
     1
  1
strokes_ogs.tif
176
     1
290
     0
176
     1
 40
1.0
176
     1
 40
1.0
176
     1
  0
VISUALSTYLE
  5
3B
102
{ACAD_REACTORS
330
2A
102
}
330
2A
100
AcDbVisualStyle
  2
JitterOff
 70
    20
177
     3
291
     1
 70
    58
 90
        2
176
     0
 90
        2
176
     0
 90
        0
176
     0
 90
        0
176
     0
 40
0.6
176
     0
 40
30.0
176
     0
 62
     7
420
 16777215
176
     0
 90
        1
176
     0
 90
        4
176
     0
 62
     7
176
     0
 62
   257
176
     0
 90
        1
176
     0
 90
        1
176
     0
 40
1.0
176
     0
 90
       10
176
     2
 62
     7
176
     0
 40
1.0
176
     0
 90
        1
176
     0
 90
        6
176
     0
 90
        2
176
     0
 62
     7
176
     0
 90
        5
176
     0
 90
        0
176
     0
 90
        0
176
     0
290
     0
176
     0
 90
        1
176
     0
 40
0.0
176
     0
 90
        0
176
     0
290
     0
176
     0
290
     1
176
     0
290
     1
176
     0
290
     0
176
     0
290
     0
176
     0
290
     0
176
     0
290
     0
176
     0
290
     0
176
     0
290
     0
176
     0
 90
       50
176
     0
 40
0.0
176
     0
 40
1.0
176
     0
 90
        0
176
     0
 62
    18
420
        0
176
     0
 90
       50
176
     0
 90
        3
176
     0
 62
     5
420
      255
176
     0
290
     0
176
     0
 90
       50
176
     0
 90
       50
176
     0
 90
       50
176
     0
290
     0
176
     0
 90
       50
176
     0
 62
   256
176
     0
 40
1.0
176
     0
 90
        2
176
     0
  1
strokes_ogs.tif
176
     0
290
     0
176
     0
 40
1.0
176
     0
 40
1.0
176
     0
  0
VISUALSTYLE
  5
38
102
{ACAD_REACTORS
330
2A
102
}
330
2A
100
AcDbVisualStyle
  2
Linepattern
 70
    14
177
     3
291
     1
 70
    58
 90
        2
176
     1
 90
        2
176
     1
 90
        0
176
     1
 90
        0
176
     1
 40
0.6
176
     1
 40
30.0
176
     1
 62
     7
420
 16777215
176
     1
 90
        1
176
     1
 90
        4
176
     1
 62
     7
176
     1
 62
   257
176
     1
 90
        7
176
     1
 90
        7
176
     1
 40
1.0
176
     1
 90
        8
176
     1
 62
     7
176
     1
 40
1.0
176
     1
 90
        1
176
     1
 90
        6
176
     1
 90
        2
176
     1
 62
     7
176
     1
 90
        5
176
     1
 90
        0
176
     1
 90
        0
176
     1
290
     0
176
     1
 90
        1
176
     1
 40
0.0
176
     1
 90
        0
176
     1
290
     0
176
     1
290
     1
176
     1
290
     1
176
     1
290
     0
176
     1
290
     0
176
     1
290
     0
176
     1
290
     0
176
     1
290
     0
176
     1
290
     0
176
     1
 90
       50
176
     1
 40
0.0
176
     1
 40
1.0
176
     1
 90
        0
176
     1
 62
    18
420
        0
176
     1
 90
       50
176
     1
 90
        3
176
     1
 62
     5
420
      255
176
     1
290
     0
176
     1
 90
       50
176
     1
 90
       50
176
     1
 90
       50
176
     1
290
     0
176
     1
 90
       50
176
     1
 62
   256
176
     0
 40
1.0
176
     0
 90
        2
176
     1
  1
strokes_ogs.tif
176
     1
290
     0
176
     1
 40
1.0
176
     1
 40
1.0
176
     1
  0
VISUALSTYLE
  5
3C
102
{ACAD_REACTORS
330
2A
102
}
330
2A
100
AcDbVisualStyle
  2
OverhangOff
 70
    21
177
     3
291
     1
 70
    58
 90
        2
176
     0
 90
        2
176
     0
 90
        0
176
     0
 90
        0
176
     0
 40
0.6
176
     0
 40
30.0
176
     0
 62
     7
420
 16777215
176
     0
 90
        1
176
     0
 90
        4
176
     0
 62
     7
176
     0
 62
   257
176
     0
 90
        1
176
     0
 90
        1
176
     0
 40
1.0
176
     0
 90
        9
176
     2
 62
     7
176
     0
 40
1.0
176
     0
 90
        1
176
     0
 90
        6
176
     0
 90
        2
176
     0
 62
     7
176
     0
 90
        5
176
     0
 90
        0
176
     0
 90
        0
176
     0
290
     0
176
     0
 90
        1
176
     0
 40
0.0
176
     0
 90
        0
176
     0
290
     0
176
     0
290
     1
176
     0
290
     1
176
     0
290
     0
176
     0
290
     0
176
     0
290
     0
176
     0
290
     0
176
     0
290
     0
176
     0
290
     0
176
     0
 90
       50
176
     0
 40
0.0
176
     0
 40
1.0
176
     0
 90
        0
176
     0
 62
    18
420
        0
176
     0
 90
       50
176
     0
 90
        3
176
     0
 62
     5
420
      255
176
     0
290
     0
176
     0
 90
       50
176
     0
 90
       50
176
     0
 90
       50
176
     0
290
     0
176
     0
 90
       50
176
     0
 62
   256
176
     0
 40
1.0
176
     0
 90
        2
176
     0
  1
strokes_ogs.tif
176
     0
290
     0
176
     0
 40
1.0
176
     0
 40
1.0
176
     0
  0
VISUALSTYLE
  5
33
102
{ACAD_REACTORS
330
2A
102
}
330
2A
100
AcDbVisualStyle
  2
Realistic
 70
     8
177
     3
291
     0
 70
    58
 90
        2
176
     1
 90
        3
176
     1
 90
        0
176
     1
 90
        2
176
     1
 40
0.6
176
     1
 40
30.0
176
     1
 62
     7
420
 16777215
176
     1
 90
        0
176
     1
 90
        0
176
     1
 62
     7
176
     1
 62
   257
176
     1
 90
        1
176
     1
 90
        1
176
     1
 40
1.0
176
     1
 90
        8
176
     1
 62
   257
176
     1
 40
1.0
176
     1
 90
        1
176
     1
 90
        6
176
     1
 90
        2
176
     1
 62
     7
176
     1
 90
        3
176
     1
 90
        0
176
     1
 90
        0
176
     1
290
     0
176
     1
 90
       13
176
     1
 40
0.0
176
     1
 90
        0
176
     1
290
     0
176
     1
290
     1
176
     1
290
     1
176
     1
290
     0
176
     1
290
     0
176
     1
290
     0
176
     1
290
     0
176
     1
290
     0
176
     1
290
     0
176
     1
 90
       50
176
     1
 40
0.0
176
     1
 40
1.0
176
     1
 90
        0
176
     1
 62
    18
420
        0
176
     1
 90
       50
176
     1
 90
        3
176
     1
 62
     5
420
      255
176
     1
290
     0
176
     1
 90
       50
176
     1
 90
       50
176
     1
 90
       50
176
     1
290
     0
176
     1
 90
       50
176
     1
 62
   256
176
     0
 40
1.0
176
     0
 90
        2
176
     1
  1
strokes_ogs.tif
176
     1
290
     0
176
     1
 40
1.0
176
     1
 40
1.0
176
     1
  0
VISUALSTYLE
  5
42
102
{ACAD_REACTORS
330
2A
102
}
330
2A
100
AcDbVisualStyle
  2
Shaded
 70
    27
177
     3
291
     0
 70
    58
 90
        2
176
     1
 90
        2
176
     1
 90
        1
176
     1
 90
        2
176
     1
 40
0.6
176
     1
 40
30.0
176
     1
 62
     7
420
 16777215
176
     1
 90
        0
176
     1
 90
        4
176
     1
 62
     7
176
     1
 62
   257
176
     1
 90
        1
176
     1
 90
        1
176
     1
 40
1.0
176
     1
 90
        8
176
     1
 62
   257
176
     1
 40
1.0
176
     1
 90
        1
176
     1
 90
        6
176
     1
 90
        2
176
     1
 62
     8
420
  7895160
176
     1
 90
        3
176
     1
 90
        0
176
     1
 90
        0
176
     1
290
     0
176
     1
 90
        5
176
     1
 40
0.0
176
     1
 90
        0
176
     1
290
     0
176
     1
290
     1
176
     1
290
     1
176
     1
290
     0
176
     1
290
     0
176
     1
290
     0
176
     1
290
     0
176
     1
290
     0
176
     1
290
     0
176
     1
 90
       50
176
     1
 40
0.0
176
     1
 40
1.0
176
     1
 90
        0
176
     1
 62
    18
420
        0
176
     1
 90
       50
176
     1
 90
        3
176
     1
 62
     5
420
      255
176
     1
290
     0
176
     1
 90
       50
176
     1
 90
       50
176
     1
 90
       50
176
     1
290
     0
176
     1
 90
       50
176
     1
 62
   256
176
     0
 40
1.0
176
     0
 90
        2
176
     1
  1
strokes_ogs.tif
176
     1
290
     0
176
     1
 40
1.0
176
     1
 40
1.0
176
     1
  0
VISUALSTYLE
  5
41
102
{ACAD_REACTORS
330
2A
102
}
330
2A
100
AcDbVisualStyle
  2
Shaded with edges
 70
    26
177
     3
291
     0
 70
    58
 90
        2
176
     1
 90
        2
176
     1
 90
        1
176
     1
 90
        2
176
     1
 40
0.6
176
     1
 40
30.0
176
     1
 62
     7
420
 16777215
176
     1
 90
        1
176
     1
 90
       10
176
     1
 62
     7
176
     1
 62
   257
176
     1
 90
        2
176
     1
 90
        1
176
     1
 40
1.0
176
     1
 90
        8
176
     1
 62
   257
176
     1
 40
1.0
176
     1
 90
        1
176
     1
 90
        6
176
     1
 90
        2
176
     1
 62
     7
176
     1
 90
        3
176
     1
 90
        0
176
     1
 90
        0
176
     1
290
     0
176
     1
 90
        5
176
     1
 40
0.0
176
     1
 90
        0
176
     1
290
     0
176
     1
290
     1
176
     1
290
     1
176
     1
290
     0
176
     1
290
     0
176
     1
290
     0
176
     1
290
     0
176
     1
290
     0
176
     1
290
     0
176
     1
 90
       50
176
     1
 40
0.0
176
     1
 40
1.0
176
     1
 90
        0
176
     1
 62
    18
420
        0
176
     1
 90
       50
176
     1
 90
        3
176
     1
 62
     5
420
      255
176
     1
290
     0
176
     1
 90
       50
176
     1
 90
       50
176
     1
 90
       50
176
     1
290
     0
176
     1
 90
       50
176
     1
 62
   256
176
     0
 40
1.0
176
     0
 90
        2
176
     1
  1
strokes_ogs.tif
176
     1
290
     0
176
     1
 40
1.0
176
     1
 40
1.0
176
     1
  0
VISUALSTYLE
  5
3E
102
{ACAD_REACTORS
330
2A
102
}
330
2A
100
AcDbVisualStyle
  2
Shades of Gray
 70
    23
177
     3
291
     0
 70
    58
 90
        2
176
     1
 90
        2
176
     1
 90
        3
176
     1
 90
        0
176
     1
 40
0.6
176
     1
 40
30.0
176
     1
 62
     7
420
 16777215
176
     1
 90
        2
176
     1
 90
        2
176
     1
 62
     7
176
     1
 62
     7
176
     1
 90
        1
176
     1
 90
        1
176
     1
 40
40.0
176
     1
 90
        8
176
     1
 62
     7
176
     1
 40
1.0
176
     1
 90
        1
176
     1
 90
        6
176
     1
 90
        2
176
     1
 62
     7
176
     1
 90
        3
176
     1
 90
        0
176
     1
 90
        0
176
     1
290
     0
176
     1
 90
        1
176
     1
 40
0.0
176
     1
 90
        0
176
     1
290
     0
176
     1
290
     1
176
     1
290
     1
176
     1
290
     0
176
     1
290
     0
176
     1
290
     0
176
     1
290
     0
176
     1
290
     0
176
     1
290
     0
176
     1
 90
       50
176
     1
 40
0.0
176
     1
 40
1.0
176
     1
 90
        0
176
     1
 62
    18
420
        0
176
     1
 90
       50
176
     1
 90
        3
176
     1
 62
     5
420
      255
176
     1
290
     0
176
     1
 90
       50
176
     1
 90
       50
176
     1
 90
       50
176
     1
290
     0
176
     1
 90
       50
176
     1
 62
   256
176
     0
 40
1.0
176
     0
 90
        2
176
     1
  1
strokes_ogs.tif
176
     1
290
     0
176
     1
 40
1.0
176
     1
 40
1.0
176
     1
  0
VISUALSTYLE
  5
3F
102
{ACAD_REACTORS
330
2A
102
}
330
2A
100
AcDbVisualStyle
  2
Sketchy
 70
    24
177
     3
291
     0
 70
    58
 90
        1
176
     1
 90
        2
176
     1
 90
        2
176
     1
 90
        0
176
     1
 40
0.6
176
     1
 40
30.0
176
     1
 62
     7
420
 16777215
176
     1
 90
        2
176
     1
 90
        2
176
     1
 62
     7
176
     1
 62
     7
176
     1
 90
        1
176
     1
 90
        1
176
     1
 40
40.0
176
     1
 90
       11
176
     1
 62
     7
176
     1
 40
1.0
176
     1
 90
        1
176
     1
 90
        6
176
     1
 90
        2
176
     1
 62
     7
176
     1
 90
        6
176
     1
 90
        0
176
     1
 90
        0
176
     1
290
     0
176
     1
 90
        1
176
     1
 40
0.0
176
     1
 90
        0
176
     1
290
     0
176
     1
290
     1
176
     1
290
     1
176
     1
290
     0
176
     1
290
     0
176
     1
290
     0
176
     1
290
     0
176
     1
290
     0
176
     1
290
     0
176
     1
 90
       50
176
     1
 40
0.0
176
     1
 40
1.0
176
     1
 90
        0
176
     1
 62
    18
420
        0
176
     1
 90
       50
176
     1
 90
        3
176
     1
 62
     5
420
      255
176
     1
290
     0
176
     1
 90
       50
176
     1
 90
       50
176
     1
 90
       50
176
     1
290
     0
176
     1
 90
       50
176
     1
 62
   256
176
     0
 40
1.0
176
     0
 90
        2
176
     1
  1
strokes_ogs.tif
176
     1
290
     0
176
     1
 40
1.0
176
     1
 40
1.0
176
     1
  0
VISUALSTYLE
  5
37
102
{ACAD_REACTORS
330
2A
102
}
330
2A
100
AcDbVisualStyle
  2
Thicken
 70
    13
177
     3
291
     1
 70
    58
 90
        2
176
     1
 90
        2
176
     1
 90
        0
176
     1
 90
        0
176
     1
 40
0.6
176
     1
 40
30.0
176
     1
 62
     7
420
 16777215
176
     1
 90
        1
176
     1
 90
        4
176
     1
 62
     7
176
     1
 62
   257
176
     1
 90
        1
176
     1
 90
        1
176
     1
 40
1.0
176
     1
 90
       12
176
     1
 62
     7
176
     1
 40
1.0
176
     1
 90
        1
176
     1
 90
        6
176
     1
 90
        2
176
     1
 62
     7
176
     1
 90
        5
176
     1
 90
        0
176
     1
 90
        0
176
     1
290
     0
176
     1
 90
        1
176
     1
 40
0.0
176
     1
 90
        0
176
     1
290
     0
176
     1
290
     1
176
     1
290
     1
176
     1
290
     0
176
     1
290
     0
176
     1
290
     0
176
     1
290
     0
176
     1
290
     0
176
     1
290
     0
176
     1
 90
       50
176
     1
 40
0.0
176
     1
 40
1.0
176
     1
 90
        0
176
     1
 62
    18
420
        0
176
     1
 90
       50
176
     1
 90
        3
176
     1
 62
     5
420
      255
176
     1
290
     0
176
     1
 90
       50
176
     1
 90
       50
176
     1
 90
       50
176
     1
290
     0
176
     1
 90
       50
176
     1
 62
   256
176
     0
 40
1.0
176
     0
 90
        2
176
     1
  1
strokes_ogs.tif
176
     1
290
     0
176
     1
 40
1.0
176
     1
 40
1.0
176
     1
  0
VISUALSTYLE
  5
30
102
{ACAD_REACTORS
330
2A
102
}
330
2A
100
AcDbVisualStyle
  2
Wireframe
 70
     5
177
     3
291
     0
 70
    58
 90
        0
176
     1
 90
        2
176
     1
 90
        0
176
     1
 90
        0
176
     1
 40
0.6
176
     1
 40
30.0
176
     1
 62
     7
420
 16777215
176
     1
 90
        1
176
     1
 90
        4
176
     1
 62
     7
176
     1
 62
   257
176
     1
 90
        1
176
     1
 90
        1
176
     1
 40
1.0
176
     1
 90
        0
176
     1
 62
   257
176
     1
 40
1.0
176
     1
 90
        1
176
     1
 90
        6
176
     1
 90
        2
176
     1
 62
     7
176
     1
 90
        3
176
     1
 90
        0
176
     1
 90
        0
176
     1
290
     0
176
     1
 90
        1
176
     1
 40
0.0
176
     1
 90
        0
176
     1
290
     0
176
     1
290
     1
176
     1
290
     1
176
     1
290
     0
176
     1
290
     0
176
     1
290
     0
176
     1
290
     0
176
     1
290
     0
176
     1
290
     0
176
     1
 90
       50
176
     1
 40
0.0
176
     1
 40
1.0
176
     1
 90
        0
176
     1
 62
    18
420
        0
176
     1
 90
       50
176
     1
 90
        3
176
     1
 62
     5
420
      255
176
     1
290
     0
176
     1
 90
       50
176
     1
 90
       50
176
     1
 90
       50
176
     1
290
     0
176
     1
 90
       50
176
     1
 62
   256
176
     0
 40
1.0
176
     0
 90
        2
176
     1
  1
strokes_ogs.tif
176
     1
290
     0
176
     1
 40
1.0
176
     1
 40
1.0
176
     1
  0
VISUALSTYLE
  5
40
102
{ACAD_REACTORS
330
2A
102
}
330
2A
100
AcDbVisualStyle
  2
X-Ray
 70
    25
177
     3
291
     0
 70
    58
 90
        2
176
     1
 90
        2
176
     1
 90
        1
176
     1
 90
        1
176
     1
 40
0.5
176
     1
 40
30.0
176
     1
 62
     7
420
 16777215
176
     1
 90
        1
176
     1
 90
        0
176
     1
 62
     7
176
     1
 62
   257
176
     1
 90
        1
176
     1
 90
        1
176
     1
 40
1.0
176
     1
 90
        8
176
     1
 62
     7
176
     1
 40
1.0
176
     1
 90
        1
176
     1
 90
        6
176
     1
 90
        2
176
     1
 62
     7
176
     1
 90
        3
176
     1
 90
        0
176
     1
 90
        0
176
     1
290
     0
176
     1
 90
       13
176
     1
 40
0.0
176
     1
 90
        0
176
     1
290
     0
176
     1
290
     1
176
     1
290
     1
176
     1
290
     0
176
     1
290
     0
176
     1
290
     0
176
     1
290
     0
176
     1
290
     0
176
     1
290
     0
176
     1
 90
       50
176
     1
 40
0.0
176
     1
 40
1.0
176
     1
 90
        0
176
     1
 62
    18
420
        0
176
     1
 90
       50
176
     1
 90
        3
176
     1
 62
     5
420
      255
176
     1
290
     0
176
     1
 90
       50
176
     1
 90
       50
176
     1
 90
       50
176
     1
290
     0
176
     1
 90
       50
176
     1
 62
   256
176
     0
 40
1.0
176
     0
 90
        2
176
     1
  1
strokes_ogs.tif
176
     1
290
     0
176
     1
 40
1.0
176
     1
 40
1.0
176
     1
  0
DICTIONARYVAR
  5
386
102
{ACAD_REACTORS
330
385
102
}
330
385
100
DictionaryVariables
280
     0
  1
1:1
  0
DICTIONARYVAR
  5
38B
102
{ACAD_REACTORS
330
385
102
}
330
385
100
DictionaryVariables
280
     0
  1
Standard
  0
DICTIONARYVAR
  5
38A
102
{ACAD_REACTORS
330
385
102
}
330
385
100
DictionaryVariables
280
     0
  1
Standard
  0
DICTIONARY
  5
387
330
5A
100
AcDbDictionary
280
     1
281
     1
  3
ACAD_ROUNDTRIP_2008_TABLESTYLE_CELLSTYLEMAP
360
388
  0
CELLSTYLEMAP
  5
388
102
{ACAD_REACTORS
330
387
102
}
330
387
100
AcDbCellStyleMap
 90
        3
300
CELLSTYLE
  1
TABLEFORMAT_BEGIN
 90
        5
170
     1
 91
        0
 92
    32768
 62
   257
 93
        1
300
CONTENTFORMAT
  1
CONTENTFORMAT_BEGIN
 90
        0
 91
        0
 92
        4
 93
        0
300

 40
0.0
140
1.0
 94
        5
 62
     0
340
11
144
0.25
309
CONTENTFORMAT_END
171
     1
301
MARGIN
  1
CELLMARGIN_BEGIN
 40
0.06
 40
0.06
 40
0.06
 40
0.06
 40
0.06
 40
0.06
309
CELLMARGIN_END
 94
        6
 95
        1
302
GRIDFORMAT
  1
GRIDFORMAT_BEGIN
 90
        0
 91
        1
 62
     0
 92
       -2
340
14
 93
        0
 40
0.045
309
GRIDFORMAT_END
 95
        2
302
GRIDFORMAT
  1
GRIDFORMAT_BEGIN
 90
        0
 91
        1
 62
     0
 92
       -2
340
14
 93
        0
 40
0.045
309
GRIDFORMAT_END
 95
        4
302
GRIDFORMAT
  1
GRIDFORMAT_BEGIN
 90
        0
 91
        1
 62
     0
 92
       -2
340
14
 93
        0
 40
0.045
309
GRIDFORMAT_END
 95
        8
302
GRIDFORMAT
  1
GRIDFORMAT_BEGIN
 90
        0
 91
        1
 62
     0
 92
       -2
340
14
 93
        0
 40
0.045
309
GRIDFORMAT_END
 95
       16
302
GRIDFORMAT
  1
GRIDFORMAT_BEGIN
 90
        0
 91
        1
 62
     0
 92
       -2
340
14
 93
        0
 40
0.045
309
GRIDFORMAT_END
 95
       32
302
GRIDFORMAT
  1
GRIDFORMAT_BEGIN
 90
        0
 91
        1
 62
     0
 92
       -2
340
14
 93
        0
 40
0.045
309
GRIDFORMAT_END
309
TABLEFORMAT_END
  1
CELLSTYLE_BEGIN
 90
        1
 91
        1
300
_TITLE
309
CELLSTYLE_END
300
CELLSTYLE
  1
TABLEFORMAT_BEGIN
 90
        5
170
     1
 91
        0
 92
        0
 62
   257
 93
        1
300
CONTENTFORMAT
  1
CONTENTFORMAT_BEGIN
 90
        0
 91
        0
 92
        4
 93
        0
300

 40
0.0
140
1.0
 94
        5
 62
     0
340
11
144
0.18
309
CONTENTFORMAT_END
171
     1
301
MARGIN
  1
CELLMARGIN_BEGIN
 40
0.06
 40
0.06
 40
0.06
 40
0.06
 40
0.06
 40
0.06
309
CELLMARGIN_END
 94
        6
 95
        1
302
GRIDFORMAT
  1
GRIDFORMAT_BEGIN
 90
        0
 91
        1
 62
     0
 92
       -2
340
14
 93
        0
 40
0.045
309
GRIDFORMAT_END
 95
        2
302
GRIDFORMAT
  1
GRIDFORMAT_BEGIN
 90
        0
 91
        1
 62
     0
 92
       -2
340
14
 93
        0
 40
0.045
309
GRIDFORMAT_END
 95
        4
302
GRIDFORMAT
  1
GRIDFORMAT_BEGIN
 90
        0
 91
        1
 62
     0
 92
       -2
340
14
 93
        0
 40
0.045
309
GRIDFORMAT_END
 95
        8
302
GRIDFORMAT
  1
GRIDFORMAT_BEGIN
 90
        0
 91
        1
 62
     0
 92
       -2
340
14
 93
        0
 40
0.045
309
GRIDFORMAT_END
 95
       16
302
GRIDFORMAT
  1
GRIDFORMAT_BEGIN
 90
        0
 91
        1
 62
     0
 92
       -2
340
14
 93
        0
 40
0.045
309
GRIDFORMAT_END
 95
       32
302
GRIDFORMAT
  1
GRIDFORMAT_BEGIN
 90
        0
 91
        1
 62
     0
 92
       -2
340
14
 93
        0
 40
0.045
309
GRIDFORMAT_END
309
TABLEFORMAT_END
  1
CELLSTYLE_BEGIN
 90
        2
 91
        1
300
_HEADER
309
CELLSTYLE_END
300
CELLSTYLE
  1
TABLEFORMAT_BEGIN
 90
        5
170
     1
 91
        0
 92
        0
 62
   257
 93
        1
300
CONTENTFORMAT
  1
CONTENTFORMAT_BEGIN
 90
        0
 91
        0
 92
        4
 93
        0
300

 40
0.0
140
1.0
 94
        2
 62
     0
340
11
144
0.18
309
CONTENTFORMAT_END
171
     1
301
MARGIN
  1
CELLMARGIN_BEGIN
 40
0.06
 40
0.06
 40
0.06
 40
0.06
 40
0.06
 40
0.06
309
CELLMARGIN_END
 94
        6
 95
        1
302
GRIDFORMAT
  1
GRIDFORMAT_BEGIN
 90
        0
 91
        1
 62
     0
 92
       -2
340
14
 93
        0
 40
0.045
309
GRIDFORMAT_END
 95
        2
302
GRIDFORMAT
  1
GRIDFORMAT_BEGIN
 90
        0
 91
        1
 62
     0
 92
       -2
340
14
 93
        0
 40
0.045
309
GRIDFORMAT_END
 95
        4
302
GRIDFORMAT
  1
GRIDFORMAT_BEGIN
 90
        0
 91
        1
 62
     0
 92
       -2
340
14
 93
        0
 40
0.045
309
GRIDFORMAT_END
 95
        8
302
GRIDFORMAT
  1
GRIDFORMAT_BEGIN
 90
        0
 91
        1
 62
     0
 92
       -2
340
14
 93
        0
 40
0.045
309
GRIDFORMAT_END
 95
       16
302
GRIDFORMAT
  1
GRIDFORMAT_BEGIN
 90
        0
 91
        1
 62
     0
 92
       -2
340
14
 93
        0
 40
0.045
309
GRIDFORMAT_END
 95
       32
302
GRIDFORMAT
  1
GRIDFORMAT_BEGIN
 90
        0
 91
        1
 62
     0
 92
       -2
340
14
 93
        0
 40
0.045
309
GRIDFORMAT_END
309
TABLEFORMAT_END
  1
CELLSTYLE_BEGIN
 90
        3
 91
        2
300
_DATA
309
CELLSTYLE_END
  0
ENDSEC
  0
EOF
